Log in

One click and you are in

Login with Facebook Login with Google

Why sign up and log in

Guitar Tabs Explorer
Mamamoo (마마무) bass tabs for Wanna be myself

Wanna Be Myself bass tab - Mamamoo (마마무)

Mamamoo (마마무) bass tabs for Wanna be myself

Bass tabs

Tuning: Standard (E A D G)

🎸 Intro:

G|------------------------------------------------------------------|
D|-0-------------------------------0--------------------------------|
A|-----------------0--------------------------------0---------------|
E|---------0---------------0----------------0-----------------------|
  1 2 3 4 1 2 3 4 1 2 3 4 1 2 3 4 1 2 3 4 1 2 3 4 1 2 3 4 1 2 3 4

🎸 Verse 1:

G|-------------------------------------------------------------------|
D|---------0---0-----------------------------------------------------|
A|-0---0-------------------3---3-----------2---2---------------------|
E|-----------------3---3-----------1---1-----------0---0-------------|
  1 2 3 4 1 2 3 4 1 2 3 4 1 2 3 4 1 2 3 4 1 2 3 4 1 2 3 4 1 2 3 4

G|-----------------------------------------------------------------|
D|-----------------0---------0---0---------------------------------|
A|-0-------------0---------------------------------3-----3-------0-|
E|---------------------------------3-3-----------3-----------3-----|
  1 + 2 + 3 + 4 + 1 + 2 + 3 + 4 + 1 + 2 + 3 + 4 + 1 + 2 + 3 + 4 +
G|-----------------------------------------------------------------|
D|-----------------------------------------------------------------|
A|-----------------2-----------------------------------------------|
E|-1-------------------------------0---------------0---------------|
  1 + 2 + 3 + 4 + 1 + 2 + 3 + 4 + 1 + 2 + 3 + 4 + 1 + 2 + 3 + 4 +


🎸 Pre-Chorus:

G|-----------------------------------------------------------------|
D|---------0-------------------------------------------------------|
A|-0-----------------------3---------------2-2-2-2-----------------|
E|-----------------3---------------1-1-1-1---------0-0-0-0-x-------|
  1 2 3 4 1 2 3 4 1 2 3 4 1 2 3 4 1 2 3 4 1 2 3 4 1 2 3 4 1 2 3 4

🎸 Chorus:

G|-----------------------------------------------------------------|
D|-------7---7-----0-0---0---0---0-------5---5---------------------|
A|-0---0---0---------------------------------------3-3---3---3---2-|
E|---------------------------------3---3---3-----------------------|
  1 + 2 + 3 + 4 + 1 + 2 + 3 + 4 + 1 + 2 + 3 + 4 + 1 + 2 + 3 + 4 +

G|-----------------------------------------------------------------|
D|-------3---3-----------------------------------------------------|
A|-----------------2-2---2---2---2-----------------3---2---0-----0-|
E|-1---1---1-----------------------0---0---0---0---------------3---|
  1 + 2 + 3 + 4 + 1 + 2 + 3 + 4 + 1 + 2 + 3 + 4 + 1 + 2 + 3 + 4 +

G|-----------------------------------------------------------------|
D|-------7---7-----0-0---0---0---0-------5---5---------------------|
A|-0---0---0---------------------------------------3-3---3---3---2-|
E|---------------------------------3---3---3-----------------------|
  1 + 2 + 3 + 4 + 1 + 2 + 3 + 4 + 1 + 2 + 3 + 4 + 1 + 2 + 3 + 4 +

G|-----------------------------------------------------------------|
D|-------3---3-----------------------------------------------------|
A|-----------------2-2---2---2---2---------------------------------|
E|-1---1---1-----------------------0---0---0---0-------------------|
  1 + 2 + 3 + 4 + 1 + 2 + 3 + 4 + 1 + 2 + 3 + 4 + 1 + 2 + 3 + 4 +


🎸 Verse 2:

G|-----------------------------------------------------------------|
D|---------0-0-0-0-------------------------------------------------|
A|-0-0-0-0-----------------3-3-3-3---------2-2-2-2-----------------|
E|-----------------3-3-3-3---------1-1-1-1---------0-0-0-0-x-------|
  1 2 3 4 1 2 3 4 1 2 3 4 1 2 3 4 1 2 3 4 1 2 3 4 1 2 3 4 1 2 3 4


🎸 Pre-Chorus:

G|-----------------------------------------------------------------|
D|-----------------0---------0---0---------------------------------|
A|-0-------------0---------------------------------3-----3-------0-|
E|---------------------------------3-3-----------3-----------3-----|
  1 + 2 + 3 + 4 + 1 + 2 + 3 + 4 + 1 + 2 + 3 + 4 + 1 + 2 + 3 + 4 +
G|-----------------------------------------------------------------|
D|-----------------------------------------------------------------|
A|-----------------2-----------------------------------------------|
E|-1-------------------------------0---0---0---0---x---------------|
  1 + 2 + 3 + 4 + 1 + 2 + 3 + 4 + 1 + 2 + 3 + 4 + 1 + 2 + 3 + 4 +

🎸 Chorus:

G|-----------------------------------------------------------------|
D|-------7---7-----0-0---0---0---0-------5---5---------------------|
A|-0---0---0---------------------------------------3-3---3---3---2-|
E|---------------------------------3---3---3-----------------------|
  1 + 2 + 3 + 4 + 1 + 2 + 3 + 4 + 1 + 2 + 3 + 4 + 1 + 2 + 3 + 4 +

G|-----------------------------------------------------------------|
D|-------3---3-----------------------------------------------------|
A|-----------------2-2---2---2---2-----------------3---2---0-----0-|
E|-1---1---1-----------------------0---0---0---0---------------3---|
  1 + 2 + 3 + 4 + 1 + 2 + 3 + 4 + 1 + 2 + 3 + 4 + 1 + 2 + 3 + 4 +

G|-----------------------------------------------------------------|
D|-------7---7-----0-0---0---0---0-------5---5---------------------|
A|-0---0---0---------------------------------------3-3---3---3---2-|
E|---------------------------------3---3---3-----------------------|
  1 + 2 + 3 + 4 + 1 + 2 + 3 + 4 + 1 + 2 + 3 + 4 + 1 + 2 + 3 + 4 +

G|-----------------------------------------------------------------|
D|-------3---3-----------------------------------------------------|
A|-----------------2-2---2---2---2---------------------------------|
E|-1---1---1-----------------------0---0---0---0-------------------|
  1 + 2 + 3 + 4 + 1 + 2 + 3 + 4 + 1 + 2 + 3 + 4 + 1 + 2 + 3 + 4 +


🎸 Bridge:

G|-----------------------------------------------------------------|
D|-0-0---0---0-----------------------------------------------------|
A|---------------------------------0-0---0---0---------------------|
E|-----------------0-0---0---0---------------------0-0---0---0-----|
  1 + 2 + 3 + 4 + 1 + 2 + 3 + 4 + 1 + 2 + 3 + 4 + 1 + 2 + 3 + 4 +

G|-----------------------------------------------------------------|
D|-0-0---0---0-----------------------------------------------------|
A|---------------------------------0-0---0---0-----5-------3---2---|
E|-----------------0-0---0---0-------------------------------------|
  1 + 2 + 3 + 4 + 1 + 2 + 3 + 4 + 1 + 2 + 3 + 4 + 1 + 2 + 3 + 4 +


🎸 Chorus:

G|-----------------------------------------------------------------|
D|-----------------0-----------------------------------------------|
A|-0-----------------------------------------------3---------------|
E|---------------------------------3-------------------------------|
  1 + 2 + 3 + 4 + 1 + 2 + 3 + 4 + 1 + 2 + 3 + 4 + 1 + 2 + 3 + 4 +

G|-----------------------------------------------------------------|
D|-----------------------------------------------------------------|
A|-----------------2-------2---------------------------------------|
E|-1-------1-----------------------0-------0-----------------------|
  1 + 2 + 3 + 4 + 1 + 2 + 3 + 4 + 1 + 2 + 3 + 4 + 1 + 2 + 3 + 4 +

G|-----------------------------------------------------------------|
D|-------7---7-----0-0---0---0---0-------5---5---------------------|
A|-0---0---0---------------------------------------3-3---3---3---2-|
E|---------------------------------3---3---3-----------------------|
  1 + 2 + 3 + 4 + 1 + 2 + 3 + 4 + 1 + 2 + 3 + 4 + 1 + 2 + 3 + 4 +

G|-----------------------------------------------------------------|
D|-------3---3-----------------------------------------------------|
A|-----------------2-2---2---2---2---------------------------------|
E|-1---1---1-----------------------0---0---0---0-------------------|
  1 + 2 + 3 + 4 + 1 + 2 + 3 + 4 + 1 + 2 + 3 + 4 + 1 + 2 + 3 + 4 +


************************************

| x  Dead note

************************************

Almost there ...

Sign in to get your own page with links to favourite songs and more. You are just one click away...

Login with Facebook Login with Google