Log in

One click and you are in

Login with Facebook Login with Google

Why sign up and log in

Guitar Tabs Explorer
Mamamoo (마마무) bass tabs for Mr 애매모호 mr ambiguous

Mr 애매모호 Mr Ambiguous bass tab by Mamamoo (마마무)

Mamamoo (마마무) bass tabs for Mr 애매모호 mr ambiguous

Bass tabs

Intro:

G|----------------------------------------|
D|-------5-0-0-----5-0---------5-0-0------|
A|---------------------4-5----------------|
E|---3-3-------3-3---------3-3------------|



G|----------------------------------------|
D|-------5-0-0-----5-0--------------------|
A|---------------------4-5----------------| x2
E|---3-3-------3-3------------------------|
                            repeat as needed
G|----------------------------------------|
D|-------5-1-1-----5-1--------------------|
A|---3-3-------3-3-----5-6----------------|
E|----------------------------------------|

Almost there ...

Sign in to get your own page with links to favourite songs and more. You are just one click away...

Login with Facebook Login with Google