Search tabs and chords

Search for song, artist or band

Log in

One click and you are in

Login with Facebook Login with Google

Why sign up and log in

Guitar Tabs Explorer
Post Malone guitar tabs for Take what you want

Guitar tabs

Tuning: Standard (E chord diagramEE A chord diagramAA D chord diagramDD G chord diagramGG B chord diagramBB E chord diagramEE)

Key: E chord diagramEE

Difficulty: Advanced

Intro/Chorus: Ozzy Osbourne

E|---------5-------------5--------7--4----9--------------------------------------4----|
B|------------4------------5---5-------5--x----------5----------5----------5-----4----|
G|-----------------------------x----------9------------6----------6----------6---5----|
D|-----6-------------4---------6----------7-------6----------6----------6--------6----| x2
A|--4------------6-------------7---------------4---------------------------------6----|
E|--------------------------------------------------------6-----------5----------4----|


Verse: Post Malone

E|----------------------------------------------------------------------------------|
B|----------------------------------------------------------------------------------|
G|----------------------------------------------------------------------------------|
D|--6-------6------6----9-------9------9----9-------9------9----7-------7------7----|
A|--4--4-4--4--4-4-4-4--6--6-6--6--6-6-6-6--7--7-7--7--7-7-7-7--7-------7------7----|
E|--------------------------------------------------------------5--5-5--5--5-5-5-5--|
                                                                                      x2
E|----------------------------------------------------------------------------------|
B|----------------------------------------------------------------------------------|
G|----------------------------------------------------------------------------------|
D|--6-------6------6----------------------------------------------6-------6----6----|
A|--4--4-4--4--4-4-4-4--9-------9------9------7-------7----7------6-------6----6----|
E|----------------------6--6-6--6--6-6-6-6----5--5-5--5--5-5-5-5--4--4-4--4--4-4-4--|


Pre Chorus: Post Malone

E|--4----4----4-----5---------6----5----4----|
B|--5----4----5-----5----7----5----5----4----|
G|--6----4----4-----5----6----6----6----5----|
D|--6----4----6-----6----6----8----7----6----|
A|--4----6----7-----6----4----9----7----6----|
E|------------------5---------6----5----4----|

Chorus: Post Malone (2nd time through the bass plays the main part)

E|----------------------------------------------------------------------------------|
B|----------------------------------------------------------------------------------|
G|----------------------------------------------------------------------------------|
D|--6-------6------6----9-------9------9----9-------9------9----7-------7------7----|
A|--4--4-4--4--4-4-4-4--6--6-6--6--6-6-6-6--7--7-7--7--7-7-7-7--7-------7------7----|
E|--------------------------------------------------------------5--5-5--5--5-5-5-5--|
                                                                                      x2
E|----------------------------------------------------------------------------------|
B|----------------------------------------------------------------------------------|
G|----------------------------------------------------------------------------------|
D|--6-------6------6----------------------------------------------6-------6----6----|
A|--4--4-4--4--4-4-4-4--9-------9------9------7-------7----7------6-------6----6----|
E|----------------------6--6-6--6--6-6-6-6----5--5-5--5--5-5-5-5--4--4-4--4--4-4-4--|


Verse: Travis Scott (Faintly in background]

E|----------------------------------------------------------------------------------|
B|----------------------------------------------------------------------------------|
G|----------------------------------------------------------------------------------|
D|--6-------6------6----9-------9------9----9-------9------9----9-------9------9----|
A|--4--4-4--4--4-4-4-4--6--6-6--6--6-6-6-6--7--7-7--7--7-7-7-7--7-------7------7----|
E|--------------------------------------------------------------5--5-5--5--5-5-5-5--|
                                                                                      x2
E|----------------------------------------------------------------------------------|
B|----------------------------------------------------------------------------------|
G|----------------------------------------------------------------------------------|
D|--6-------6------6----------------------------------------------6-------6----6----|
A|--4--4-4--4--4-4-4-4--9-------9------9------7-------7----7------6-------6----6----|
E|----------------------6--6-6--6--6-6-6-6----5--5-5--5--5-5-5-5--4--4-4--4--4-4-4--|

E|--4----4----4-----5---------6----5----4----|
B|--5----4----5-----5----7----5----5----4----|
G|--6----4----4-----5----6----6----6----5----|
D|--6----4----6-----6----6----8----7----6----|
A|--4----6----7-----6----4----9----7----6----|
E|------------------5---------6----5----4----|


Chorus: Ozzy Osbourne (2nd time through the bass plays the main part)

E|---------5-------------5--------7--4----9--------------------------------------4----|
B|------------4------------5---5-------5--x----------5----------5----------5-----4----|
G|-----------------------------x----------9------------6----------6----------6---5----|
D|-----6-------------4---------6----------7-------6----------6----------6--------6----| x2
A|--4------------6-------------7---------------4---------------------------------6----|
E|--------------------------------------------------------6-----------5----------4----|


Solo: (Best I can make out by ear)

*(bend up then use your pick to rapidly hit off 16th fret while slowly bending the string back down)
E|---------------9-------------10--------------12---------------------------------------------------------|
B|---------------------------------------------------------*----------------------------------------------|
G|--11b13b11b13-----11b13b11b13-----11b13b11b13-----11b13--b13t16p13t16t13tb12t16t12t16t12t16t11t16t11----|
D|--------------------------------------------------------------------------------------------------------|
A|--------------------------------------------------------------------------------------------------------|
E|--------------------------------------------------------------------------------------------------------|

E|----------------------------------------------------------------------------|
B|------------------------------------19b21b19-17-16h17p16p14-16h17p16p14-16--|
G|--13h16-/18----18b20--18b20~p16-18------------------------------------------|
D|----------------------------------------------------------------------------|
A|----------------------------------------------------------------------------|
E|----------------------------------------------------------------------------|

E|-16-16-------------14-14-----------------------------------------------------------------------------------|
B|-------17-17-------------16-16-----------------------------------------------------------------------------|
G|-------------18-18-------------16-16-17b19-10-14-17b19-19-14--14-------14----------------------------------|
D|-----------------------------------------------------------------16b18----16p13-16p13----13----------------|
A|--------------------------------------------------------------------------------------16----16h14-14h16p14-|
E|-----------------------------------------------------------------------------------------------------------|

E|-9h12p9h12p9h11p9h11p9h11p9---------------------------------------------------------------19---------|
B|-----------------------------12b14b12-9-------9------------12b14-14b16-16b17-17b19-19~b21----19b21---|
G|----------------------------------------11b13---9p7-9p7----------------------------------------------|
D|--------------------------------------------------------7--------------------------------------------|
A|-----------------------------------------------------------------------------------------------------|
E|-----------------------------------------------------------------------------------------------------|

E|-----------------------------------------------------------|
B|----17-19b21b19-17h19p17-----17-19-19b21b19-17h19p17-------|
G|-18-----------------------18-------------------------------|
D|-----------------------------------------------------------|
A|-----------------------------------------------------------|
E|-----------------------------------------------------------|

E|-----------16h14----14--------16h14----14-------18b19--14h16p14--|
B|-----17-19-------17----17p14--------17----16h14------------------|
G|--18-------------------------------------------------------------|
D|-----------------------------------------------------------------|
A|-----------------------------------------------------------------|
E|-----------------------------------------------------------------|

    |   *tremolo picking   |
    v                      v
E|--9--11--12--14--12--11--9------------------16----16-------16----------|
B|-----------------------------16--17~p16p14--19b21-19b21----19b21-------|
G|-----------------------------------------------------------------------|
D|-----------------------------------------------------------------------|
A|-----------------------------------------------------------------------|
E|-----------------------------------------------------------------------|


Legend

h - hammer on
p - pull off
b - bend
~ - ring out
t - tap

Take What You Want tab

Post Malone guitar tabs for Take what you want Guitar tablature for Post Malone feat. Ozzy Osbourne & Travis Scott: Take What You Want. Enjoy!

Other versions of Take What You Want

Take what you wantChords
Take what you want (Ver. 2)Chords

Almost there ...

Sign in to get your own page with links to favourite songs and more. You are just one click away...

Login with Facebook Login with Google