Log in

One click and you are in

Login with Facebook Login with Google

Why sign up and log in

Guitar Tabs Explorer
Yngwie Malmsteen tabs for Vengance

Guitar tabs

VENGANCE
                         As recorded by YNGWIE malmsteen

Words by Y.M.

Music by Y.M
Transcribed by Kostas petropoulos
kostas_petropoulos@hotmail.com
Zaharo Greece
pedaling intro actually involves two guitars

|-17-15-17-13-17-12-17----:-------------------------:
|----------------------15-:-18-17-18-15-18-11-18----:
|-------------------------:----------------------15-:
|-------------------------:-------------------------:
|-------------------------:-------------------------:
|-------------------------:-------------------------:


|-------------------------:-----------------------|
|-15-13-15-11-15-10-15----:-11-10-11-8-11-6-11-5--|
|----------------------12-:-----------------------|
|-------------------------:-----------------------|
|-------------------------:-----------------------|
|-------------------------:-----------------------|


                                ~
|---------------------------------------------5-10-5-6-------------------|
|-8p6h8p6h8p6-------5-----------------------6----------8S10-6-5----------|
|-------------7-6-7---7-6-7---------------7---------------------7S9---<7>|
|---------------------------7-----------7---------------------------7----|
|-----------------------------8-7-4-5-8----------------------------------|
|------------------------------------------------------------------------|

main riff
                                                                 ~
|---------------------------------------------------------------------|
|---------------------------------------------------------------------|
|--------------------------------------------------------6-9-7-6-7----|
|-0-0-0-3-0-0-7-0-8-0-0-12-0-0-8-0-7-0-0-3-0-0-7-----5-8--------------|
|------------------------------------------------4-7------------------|
|---------------------------------------------------------------------|


|----------------------------------------------------------------------|
|--------------------------------------------------3h5p3p2-------------|
|----------------------------------------------------------3-2-0-------|
|-0-0-0-3-0-0-7-0--8-0-0-12-0-0-8-0--7-0-0-3-0-0-7---------------3-2-0-|
|----------------------------------------------------------------------|
|----------------------------------------------------------------------|


|-------------------:------------------------:---------------------------|
|-------------------:------------------------:---------------------------|
|---------6-9-7-6-7-:-----------9-12-10-9-10-:-------------12-15-14-12-14|
|-----5-8-----------:------8-11--------------:-------11-14---------------|
|-4-7---------------:-7-10-------------------:-10-13---------------------|
|-------------------:------------------------:---------------------------|


                                       ~~
|-----------------------------------------:
|-----------------------------------------:
|-14-15-12-15-10-15----15-----------------:
|-------------------14----12-11-14-11-12--:
|-----------------------------------------:
|-----------------------------------------:


|-----------------17-22-17-------------------|
|--------------18----------18----------------|
|-----------19----------------19-------------|
|-----15-19----------------------19-15-------|
|--17----------------------------------17----|
|--------------------------------------------|

Almost there ...

Sign in to get your own page with links to favourite songs and more. You are just one click away...

Login with Facebook Login with Google