My Resurrection by Yngwie Malmsteen

My Resurrection tab by Yngwie Malmsteen

Guitar tabs

My Resurrection
Yngwie Malmsteen
Upnorth



D#||-----------------------------------------------------------------------
A#||-----------------------------------------------------------------------
F#||-----------------------------------------------------------------------
C#||-----------------------------------------------------------------------
G#||----------0-1-2-3-4-5-6-7-8-9-10-11-12-13-14-15-15-14-13-12-11-10-9-8-7
D#||----------0-1-2-3-4-5-6-7-8-9-10-11-12-13-14-15-15-14-13-12-11-10-9-8-7



--------------------------|-------------------------|
--------------------------|-------------------------|
--------------------------|-------------------------|
--9--------8--------7-----|-----10~-------9----8----|
--7--7--7--7--7--7--7--7--|--7--7~----7-7-7----7----|
--------------------------|-------------------------|



--------------------------|-------------------------|
--------------------------|-------------------------|
--------------------------|-------------------------|
--9--------8--------7-----|-----10~-------9----8----|
--7--7--7--7--7--7--7--7--|--7--7~----7-7-7----7----|
--------------------------|-------------------------|



------------------------|------------------------------------------|
------------------------|------------------------------------------|
------------------------|-----------------7-9-7--------------------|
--9------5-----x-x-7----|----------7-9-10-------10-9-7-------------|
--7------3-----x-x-5----|---7-9-10---------------------10-9-7------|
---------------x-x------|-------------------------------------10~--|



------------------------|------------------------------------------|
------------------------|------------------------------------------|
------------------------|-----------------7-9-7--------------------|
--9------5-----x-x-7----|----------7-9-10-------10-9-7-------------|
--7------3-----x-x-5----|---7-9-10---------------------10-9-7------|
---------------x-x------|-------------------------------------10~--|



------------------------|------------------------------------------|
------------------------|------------------------------------------|
------------------------|-----------------7-9-7--------------------|
--9------5-----x-x-7----|----------7-9-10-------10-9-7-------------|
--7------3-----x-x-5----|---7-9-10---------------------10-9-7------|
---------------x-x------|-------------------------------------10~--|



------------------------|------------------------------------------|
------------------------|------------------------------------------|
------------------------|-----------------7-9-7--------------------|
--9------5-----x-x-7----|----------7-9-10-------10-9-7-------------|
--7------3-----x-x-5----|---7-9-10---------------------10-9-7------|
---------------x-x------|-------------------------------------10~--|



-----------------------|--------------------------|-----------------------|
-----------------------|--------------------------|-----------------------|
--8------9-------------|--------------------------|--8------9-------------|
--9------9-------------|--------------------------|--9------9-------------|
--6------7-------------|--------------------------|--6------7-------------|
---------7----0--0--0--|--0--0--0--0--0--0--0--0--|---------7----0--0--0--|



--------------------------|--------------------|--------------------------|
--------------------------|--------------------|--------------------------|
--------------------------|--8------9----------|--5------4----------------|
--------------------------|--9------9----------|--4------5----5-5-5-5-5-5-|
--------------------------|--6------7----------|--6------5----------------|
--0--0--0--0--0--0--0--0--|---------7----------|--------------------------|



--------------------------|--------------------|-------------------|
--3------2----------------|--5------4----------|-------------------|
--1------2----2-2-2-2-2-2-|--3------4----------|--5----------------|
--3------2----------------|--5------4----------|--5----------------|
--------------------------|--------------------|--3----------------|
--------------------------|--------------------|-------------------|



--------------------------|-----------------------|
--------------------------|-----------------------|
--------------------------|--8------9-------------|
--------------------------|--9------9-------------|
--3--2--0--3--2--0--------|--6------7-------------|
--------------------3--2--|---------7----0--0--0--|



--------------------------|-----------------------|
--------------------------|-----------------------|
--------------------------|--8------9-------------|
--------------------------|--9------9-------------|
--------------------------|--6------7-------------|
--0--0--0--0--0--0--0--0--|---------7----0--0--0--|



--------------------------|--------------------|--------------------------|
--------------------------|--------------------|--------------------------|
--------------------------|--8------9----------|--5------4----------------|
--------------------------|--9------9----------|--4------5----5-5-5-5-5-5-|
--------------------------|--6------7----------|--6------5----------------|
--0--0--0--0--0--0--0--0--|---------7----------|--------------------------|



--------------------------|--------------------|-------------------|
--3------2----------------|--5------4----------|-------------------|
--1------2----2-2-2-2-2-2-|--3------4----------|--5----------------|
--3------2----------------|--5------4----------|--5----------------|
--------------------------|--------------------|--3----------------|
--------------------------|--------------------|-------------------|



--------------------------|---------------0----|-------------------|
--------------------------|---------------0----|-------------------|
--------------------------|---------------0----|-------------------|
--------------------------|--------------------|--4----------------|
--3--2--0--3--2--0--------|--2-----------------|--5----------------|
--------------------3--2--|--0-----------------|-------------------|



--------------------|-------------------|-------------------|
--------------------|-------------------|--2----------------|
--4-----------------|-------------------|--2----------------|
--5------------4----|--5----------------|--2----------------|
--5------------2----|--3----------------|--0----------------|
--3-----------------|-------------------|-------------------|



-----------6--------|--------------------------|
-----------7--------|--------------------------|
-----------6--------|--------------------------|
--------------------|--4--------4--------4-----|
--------------------|--2--2--2--2--2--2--2--2--|
--6~----------------|--------------------------|



------------------------------|---------------0----|-------------------|
------------------------------|---------------0----|-------------------|
------------------------------|---------------0----|-------------------|
------------------------------|--------------------|--4----------------|
--2-2-2-2-2-2-2-2-0-----------|--2-----------------|--5----------------|
---------------------3--2--0--|--0-----------------|-------------------|



--------------------|-------------------|-------------------|
--------------------|-------------------|--2----------------|
--4-----------------|-------------------|--2----------------|
--5------------4----|--5----------------|--2----------------|
--5------------2----|--3----------------|--0----------------|
--3-----------------|-------------------|-------------------|



-----------6--------|--------------------------|
-----------7--------|--------------------------|
-----------6--------|--------------------------|
--------------------|--4--------4--------4-----|
--------------------|--2--2--2--2--2--2--2--2--|
--6~----------------|--------------------------|



------------------------------|------------------------|
------------------------------|------------------------|
------------------------------|------------------------|
------------------------------|--9------5-----x-x-7----|
--2-2-2-2-2-2-2-2-0-----------|--7------3-----x-x-5----|
---------------------3--2--0--|---------------x-x------|



------------------------------------------|------------------------|
------------------------------------------|------------------------|
-----------------7-9-7--------------------|------------------------|
----------7-9-10-------10-9-7-------------|--9------5-----x-x-7----|
---7-9-10---------------------10-9-7------|--7------3-----x-x-5----|
-------------------------------------10~--|---------------x-x------|



------------------------------------------|------------------------|
------------------------------------------|------------------------|
-----------------7-9-7--------------------|------------------------|
----------7-9-10-------10-9-7-------------|--9------5-----x-x-7----|
---7-9-10---------------------10-9-7------|--7------3-----x-x-5----|
-------------------------------------10~--|---------------x-x------|



------------------------------------------|---------------------|
------------------------------------------|---------------------|
-----------------7-9-7--------------------|---------------------|
----------7-9-10-------10-9-7-------------|--9------5------7----|
---7-9-10---------------------10-9-7------|--7------3------5----|
-------------------------------------10~--|---------------------|



------------------------------------------|-----------------------|
------------------------------------------|-----------------------|
-----------------7-9-7--------------------|--8------9-------------|
----------7-9-10-------10-9-7-------------|--9------9-------------|
---7-9-10---------------------10-9-7------|--6------7-------------|
-------------------------------------10~--|---------7----0--0--0--|



--------------------------|-----------------------|
--------------------------|-----------------------|
--------------------------|--8------9-------------|
--------------------------|--9------9-------------|
--------------------------|--6------7-------------|
--0--0--0--0--0--0--0--0--|---------7----0--0--0--|



--------------------------|--------------------|--------------------------|
--------------------------|--------------------|--------------------------|
--------------------------|--8------9----------|--5------4----------------|
--------------------------|--9------9----------|--4------5----5-5-5-5-5-5-|
--------------------------|--6------7----------|--6------5----------------|
--0--0--0--0--0--0--0--0--|---------7----------|--------------------------|



--------------------------|----------------------|--------------------|
--3------2----------------|--5------4------------|--------------------|
--1------2----2-2-2-2-2-2-|--3------4------------|--------------------|
--3------2----------------|--5------4------------|--------------------|
--------------------------|----------------------|--10----------------|
--------------------------|----------------12~---|--------------------|



--------------------------|---------------0----|-------------------|
--------------------------|---------------0----|-------------------|
--------------------------|---------------0----|-------------------|
--------------------------|--------------------|--4----------------|
--3--2--0--3--2--0--------|--2-----------------|--5----------------|
--------------------3--2--|--0-----------------|-------------------|



--------------------|-------------------|-------------------|
--------------------|-------------------|--2----------------|
--4-----------------|-------------------|--2----------------|
--5------------4----|--5----------------|--2----------------|
--5------------2----|--3----------------|--0----------------|
--3-----------------|-------------------|-------------------|



-----------6--------|--------------------------|
-----------7--------|--------------------------|
-----------6--------|--------------------------|
--------------------|--4--------4--------4-----|
--------------------|--2--2--2--2--2--2--2--2--|
--6~----------------|--------------------------|



------------------------------|---------------0----|-------------------|
------------------------------|---------------0----|-------------------|
------------------------------|---------------0----|-------------------|
------------------------------|--------------------|--4----------------|
--2-2-2-2-2-2-2-2-0-----------|--2-----------------|--5----------------|
---------------------3--2--0--|--0-----------------|-------------------|



--------------------|-------------------|-------------------|
--------------------|-------------------|--2----------------|
--4-----------------|-------------------|--2----------------|
--5------------4----|--5----------------|--2----------------|
--5------------2----|--3----------------|--0----------------|
--3-----------------|-------------------|-------------------|



-----------6--------|-------------------------------|
-----------7--------|-------------------------------|
-----------6--------|-------------------------------|
--------------------|--4----------4----------4------|
--------------------|--2--2-2-2-2-2--2-2-2-2-2--2-2-|
--6~----------------|-------------------------------|



------------------------------|------------------------|
------------------------------|------------------------|
------------------------------|------------------------|
------------------------------|--9------5-----x-x-7----|
--2-2-2-2-2-2-2-2-0-----------|--7------3-----x-x-5----|
---------------------3--2--0--|---------------x-x------|



------------------------------------------|------------------------|
------------------------------------------|------------------------|
-----------------7-9-7--------------------|------------------------|
----------7-9-10-------10-9-7-------------|--9------5-----x-x-7----|
---7-9-10---------------------10-9-7------|--7------3-----x-x-5----|
-------------------------------------10~--|---------------x-x------|



------------------------------------------|------------------------|
------------------------------------------|------------------------|
-----------------7-9-7--------------------|------------------------|
----------7-9-10-------10-9-7-------------|--9------5-----x-x-7----|
---7-9-10---------------------10-9-7------|--7------3-----x-x-5----|
-------------------------------------10~--|---------------x-x------|



------------------------------------------|------------------------|
------------------------------------------|------------------------|
-----------------7-9-7--------------------|------------------------|
----------7-9-10-------10-9-7-------------|--9------5-----x-x-7----|
---7-9-10---------------------10-9-7------|--7------3-----x-x-5----|
-------------------------------------10~--|---------------x-x------|



------------------------------------------|-------------------|
------------------------------------------|--5----------------|
-----------------7-9-7--------------------|--4----------------|
----------7-9-10-------10-9-7-------------|--4----------------|
---7-9-10---------------------10-9-7------|--2----------------|
-------------------------------------10~--|-------------------|



-------------------|-------------------|-------------------|
--4----------------|--7----------------|--6----------------|
--4----------------|--6----------------|--6----------------|
--4----------------|--6----------------|--6----------------|
--2----------------|--4----------------|--4----------------|
-------------------|-------------------|-------------------|



--14-9----------9-13-9-14-9----------9-13-9-|
-------10----10-------------10----10--------|
----------11-------------------11-----------|
--------------------------------------------|
--------------------------------------------|
--------------------------------------------|



--14-9-10----9--------------------------|
----------12---10-12-9-10----9----------|
--------------------------11---10-11~---|
----------------------------------------|
----------------------------------------|
----------------------------------------|



--14-9----------9-13-9-14-9----------9-13-9-|
-------10----10-------------10----10--------|
----------11-------------------11-----------|
--------------------------------------------|
--------------------------------------------|
--------------------------------------------|



--14-9-10----9--------------------------|
----------12---10-12-9-10----9----------|
--------------------------11---10-11~---|
----------------------------------------|
----------------------------------------|
----------------------------------------|



--10-7-------7-9-7-10-7-------7-12-7-|
-------7---7------------7---7--------|
---------7----------------7----------|
-------------------------------------|
-------------------------------------|
-------------------------------------|



--14-10----------10-12-10-14-10----------10-14-11-|
--------10----10----------------10----10----------|
-----------11----------------------11-------------|
--------------------------------------------------|
--------------------------------------------------|
--------------------------------------------------|



--14-9----------9-13-9-14-9----------9-13-9-|
-------10----10-------------10----10--------|
----------11-------------------11-----------|
--------------------------------------------|
--------------------------------------------|
--------------------------------------------|



--14-9-10----9--------------------------------|
----------12---10-12-9-10----9----------------|
--------------------------11---10-11----10----|
-------------------------------------12----11-|
----------------------------------------------|
----------------------------------------------|



--------------------------------|------------------|------------------|
--------------------------------|------------------|------------------|
--------------------------------|------------------|------------------|
--12-9-11----9------------------|------------------|------------------|
----------12---12-11-8-9~-------|------------------|------------------|
--------------------------------|------------------|------------------|



------------------|------------------|------------------|
------------------|------------------|------------------|
------------------|------------------|------------------|
------------------|------------------|------------------|
------------------|------------------|------------------|
------------------|------------------|------------------|



------------------|------------------|------------------|
------------------|------------------|------------------|
------------------|------------------|------------------|
------------------|------------------|------------------|
------------------|------------------|------------------|
------------------|------------------|------------------|



------------------|------------------|------------------|
------------------|------------------|------------------|
------------------|------------------|------------------|
------------------|------------------|------------------|
------------------|------------------|------------------|
------------------|------------------|------------------|



------------------|------------------|------------------|
------------------|------------------|------------------|
------------------|------------------|------------------|
------------------|------------------|------------------|
------------------|------------------|------------------|
------------------|------------------|------------------|



------------------|------------------|-------------------|
------------------|------------------|-------------------|
------------------|------------------|-------------------|
------------------|------------------|-------------------|
------------------|------------------|--4----------------|
------------------|------------------|--2----------------|



--------------------|-------------------|--------------------|
--------------------|-------------------|--------------------|
--------------------|-------------------|--------------------|
----------6----6----|-------------------|--------------------|
----------4----4----|--2----------------|--------------------|
--------------------|--0----------------|--12----------------|



---------------0----|-------------------|--------------------|
---------------0----|-------------------|--------------------|
---------------0----|-------------------|--4-----------------|
--------------------|--4----------------|--5------------4----|
--2-----------------|--5----------------|--5------------2----|
--0-----------------|-------------------|--3-----------------|



-------------------|-------------------|-----------6--------|
-------------------|--2----------------|-----------7--------|
-------------------|--2----------------|-----------6--------|
--5----------------|--2----------------|--------------------|
--3----------------|--0----------------|--------------------|
-------------------|-------------------|--6~----------------|



--------------------------|--------------------------|---------------0----|
--------------------------|--------------------------|---------------0----|
--------------------------|--------------------------|---------------0----|
--4--------4--------4-----|--------------------------|--------------------|
--2--2--2--2--2--2--2--2--|--3--2--0--3--2--0--------|--2-----------------|
--------------------------|--------------------3--2--|--0-----------------|



-------------------|--------------------|-------------------|
-------------------|--------------------|-------------------|
-------------------|--4-----------------|-------------------|
--4----------------|--5------------4----|--5----------------|
--5----------------|--5------------2----|--3----------------|
-------------------|--3-----------------|-------------------|



-------------------|-----------6--------|-------------------------------|
--2----------------|-----------7--------|-------------------------------|
--2----------------|-----------6--------|-------------------------------|
--2----------------|--------------------|--4----------4----------4------|
--0----------------|--------------------|--2--2-2-2-2-2--2-2-2-2-2--2-2-|
-------------------|--6~----------------|-------------------------------|



----------------------------------|--------------------------|
----------------------------------|--------------------------|
----------------------------------|--------------------------|
----------------------------------|--9--------8--------7-----|
--2-2-2-2-2-2-2-2-2-2-3-2-0-------|--7--7--7--7--7--7--7--7--|
----------------------------3-2-0-|--------------------------|



-------------------------|--------------------------|
-------------------------|--------------------------|
-------------------------|--------------------------|
-----10~-------9----8----|--9--------8--------7-----|
--7--7~----7-7-7----7----|--7--7--7--7--7--7--7--7--|
-------------------------|--------------------------|



-------------------------|--------------------------|
-------------------------|--------------------------|
-------------------------|--------------------------|
-----10--------9----8----|--9--------8--------7-----|
--7--7-----7-7-7----7----|--7--7--7--7--7--7--7--7--|
-------------------------|--------------------------|



-------------------------|--------------------------|
-------------------------|--------------------------|
-------------------------|--------------------------|
-----10--------9----8----|--9--------8--------7-----|
--7--7-----7-7-7----7----|--7--7--7--7--7--7--7--7--|
-------------------------|--------------------------|



-------------------------|------------------------|
-------------------------|------------------------|
-------------------------|------------------------|
-----10--------9----8----|--9------5-----x-x-7----|
--7--7-----7-7-7----7----|--7------3-----x-x-5----|
-------------------------|---------------x-x------|



------------------------------------------|------------------------|
------------------------------------------|------------------------|
-----------------7-9-7--------------------|------------------------|
----------7-9-10-------10-9-7-------------|--9------5-----x-x-7----|
---7-9-10---------------------10-9-7------|--7------3-----x-x-5----|
-------------------------------------10~--|---------------x-x------|



------------------------------------------|------------------------|
------------------------------------------|------------------------|
-----------------7-9-7--------------------|------------------------|
----------7-9-10-------10-9-7-------------|--9------5-----x-x-7----|
---7-9-10---------------------10-9-7------|--7------3-----x-x-5----|
-------------------------------------10~--|---------------x-x------|



------------------------------------------|------------------------|
------------------------------------------|------------------------|
-----------------7-9-7--------------------|------------------------|
----------7-9-10-------10-9-7-------------|--9------5-----x-x-7----|
---7-9-10---------------------10-9-7------|--7------3-----x-x-5----|
-------------------------------------10~--|---------------x-x------|



------------------------------------------|-------------------------------|
------------------------------------------|-------------------------------|
-----------------7-9-7--------------------|-------------------------------|
----------7-9-10-------10-9-7-------------|--9-----------5~----------7----|
---7-9-10---------------------10-9-7------|--7-----------3~----------5----|
-------------------------------------10~--|----0-0-0-0-0---0-0-0-0-0------|



------------------------------------------|-------------------------------|
------------------------------------------|-------------------------------|
-----------------7-9-7--------------------|-------------------------------|
----------7-9-10-------10-9-7-------------|--9-----------5~----------7----|
---7-9-10---------------------10-9-7------|--7-----------3~----------5----|
-------------------------------------10~--|----0-0-0-0-0---0-0-0-0-0------|



------------------------------------------|-------------------------------|
------------------------------------------|-------------------------------|
-----------------7-9-7--------------------|-------------------------------|
----------7-9-10-------10-9-7-------------|--9-----------5~----------7----|
---7-9-10---------------------10-9-7------|--7-----------3~----------5----|
-------------------------------------10~--|----0-0-0-0-0---0-0-0-0-0------|



------------------------------------------|---------------------|------|
------------------------------------------|---------------------|------|
-----------------7-9-7--------------------|---------------------|------|
----------7-9-10-------10-9-7-------------|--9------5------7----|------|
---7-9-10---------------------10-9-7------|--7------3------5----|------|
-------------------------------------10~--|---------------------|------|



------|-------||
------|-------||
------|-------||
------|--9----||
------|--7----||
------|-------||

Find guitar tabs and chords

A B C D E F G H I J K L M N O P Q R S T U V W X Y Z #