Log in

One click and you are in

Login with Facebook Login with Google

Why sign up and log in

Guitar Tabs Explorer
Yngwie Malmsteen tabs for Memories

Guitar tabs

Yngwie Malmsteen "Memories"
from Odyssey
letostak@netcom.com
use capo at 5th fret


|-6-------6--------|-6-------6--------|-6-------0--------|6-------6--------|
|---6---6---6---6--|---6---6---6---6--|---6---6---6---6--|--6---6---6---6--|
|-----0-------0----|-----0-------0----|-----0-------0----|----0-------0----|
|------------------|------------------|------------------|-----------------|
|------------------|------------------|------------------|-----------------|
|------------------|------------------|------------------|-----------------|
|                  |                  |                  |                 |
|                  |                  |                  |                 |
|-3-------3--------|-3-------3-3------|-3-------3--------|-3-------3-------|
|---3---3---3---3--|---3---3-------3--|---3---3---3---3--|---3---3---3---3-|
|-----0-------0----|-----0-------0----|-----0-------0----|-----0-------0---|
|------------------|------------------|------------------|-----------------|
|------------------|------------------|------------------|-----------------|
|------------------|------------------|------------------|-----------------|


|-6-------6--------|-6-------6--------|-6-------6--------|-5-------5-------|
|---8---8---8---8--|---6---6---6---6--|---8---8---8---8--|---4---4---4---4-|
|-----0-------0----|-----0-------0----|-----0-------0----|-----0-------0---|
|------------------|------------------|------------------|-----------------|
|------------------|------------------|------------------|-----------------|
|------------------|------------------|------------------|-----------------|
|                  |                  |                  |                 |
|                  |                  |                  |                 |
|-3-------3--------|-5-------5--------|-3-------3--------|-3-------3-------|
|---3---3---3---3--|---3---3---3---3--|---4---4---4---4--|---1---1---1-----|
|-----0-------0----|-----0-------0----|-----0-------0----|-----0-------0---|
|------------------|------------------|------------------|-----------------|
|------------------|------------------|------------------|-----------------|
|------------------|------------------|------------------|-----------------|


|15---------11----------|-11-13------13-|-8---------8-10-11-10-8-|6-------6|
|---11---11----11---11--|-------11------|---10---10--------------|--8---8--|
|------0----------0-----|---------------|------------------------|---------|
|-----------------------|----------5----|------5-----------------|----5----|
|-----------------------|---------------|------------------------|---------|
|-----------------------|---------------|------------------------|---------|
|                       |               |                        |         |
|                       |               |                        |         |
|11---------11----------|-8-10------10--|------------------------|---------|
|---8----8------8----8--|------8--------|10--------10-11-13-11-10|8---8----|
|-----------------------|---------------|----10--10--------------|-7-7-7---|
|------5----------5-----|--------5------|-------5----------------|--5---5--|
|-----------------------|---------------|------------------------|---------|
|-----------------------|---------------|------------------------|---------|


|8---------8-10-11-10-8-|6-------8h10p8-6---|5-5h6p5---5-|-6--8--10--8--6----|
|--10---10--------------|--8---8------------|7-------8---|-------------------|
|-----------------------|-------------------|7-----------|-------------------|
|-----5-----------------|----5--------------|0-----------|-------------------|
|-----------------------|-------------------|------------|-------------------|
|-----------------------|-------------------|------------|-------------------|
|                       |                   |            |                   |
|                       |                   |            |                   |
|-----------------------|-------------------|2-2h3p2---2-|-3--5--6--5--3-----|
|10-------10-11-13-11-10|8-------10h11p10-8-|3-------5---|12-15-12-15-20*----|
|---10-10---------------|--8---8------------|2-----------|-------------------|
|-----5-----------------|----5--------------|0-----------|-------------------|
|-----------------------|-------------------|------------|-------------------|
|-----------------------|-------------------|------------|-------------------|
* guitar 3 only at end
ⓘ Guitar tab for 'Memories' by Yngwie Malmsteen, Yngwie Malmsteen, a male metal artist from Stockholm, Sweden. Yngwie Malmsteen was born in 1963.

Almost there ...

Sign in to get your own page with links to favourite songs and more. You are just one click away...

Login with Facebook Login with Google