Log in

One click and you are in

Login with Facebook Login with Google

Why sign up and log in

Guitar Tabs Explorer
Yngwie Malmsteen bass tabs for Little savage

Bass tabs with lyrics

---------- Forwarded message ----------

Yngwie Malmsteen - Little Savage
from Rising Force
tune down 1/2 step

          play 2times=========================================
|----------------||------------------------------|----------------------
|----------------||o---------4-----5-----2h4-----|-----4-----2----------
|----------------||o------4-----4-----4----------|--4-----4-----5-4-2---
|----0--2--3--2--||----2----------------------2--|----------------------
---------|------------------------|---------------------------|
---------|----4-----5-----2h4-----|----4-----2----------------|
---------|-4-----4-----4----------|-4-----4-----5-4-2---------|
-5-3-2---|---------------------2--|--------------------5-2-3--|


Guitar solo 2nd time

|------------------------|-------------------------|-------------------|
|----5-----6-----3h5-----|----5-----3--------------|---5---6---3h5-----|
|-5-----5-----5----------|-5-----5-----6-5-3-------|-5---5---5---------|
|---------------------3--|-------------------6-4-3-|----------------3--|


|----------------------|----4-----5-----2h4-----|----4-----2------------
|----5-----------------|-4-----4-----4----------|-4-----4-----5--4--2---
|-5-----5--0--2--3--2--|---------------------2--|-----------------------
|----------------------|------------------------|-----------------------


-----------|----4-----5-----2h4-----|----4-----2------------------------|
-----------|-4-----4-----4----------|-4-----4-----5--4--2---------------|
--5--3--2--|---------------------2--|----------------------5--3--2------|
-----------|------------------------|-----------------------------------|

|-------------|--------------------|--------------------------|---------
|-------------|--------------------|----4-----5-----2h4-------|----4----
|-------------|--------------------|-4-----4-----4------------|-4-----4-
|-------------|--------0--2--3--2--|---------------------2----|---------


------------------|------------------------|---------------------------|
--2---------------|----4-----5-----2h4-----|----4-----2----------------|
-----5-4-2--------|-4-----4-----4----------|-4-----4-----5-4-2---------|
-----------5-3-2--|---------------------2--|-------------------5-3-2---|

                2.
|-------------|-------------||------4-----5-----2h4------|----4---------
|-------------|------------o||---4-----4-----4-----------|-4-----4------
|-------------|------------o||------------------------2--|--------------
|-------------|--------2----||---------------------------|----------0--2


--------|---------------------------|--------------------------|--------
--------|-----4-----5-----2h4-------|----4-----2---------------|----4---
--------|--4-----4-----4------------|-4-----4-----5-4-2--------|-4-----4
--3--2--|-----------------------2---|-------------------5-3-2--|--------

                       Unaccompanied Gtr Solo Break
----------------|---------------------------|--------|---------|-------|
--5-----2h4-----|----4-----2----------------|--------|---------|-------|
-----4----------|-4-----4-----5-4-2---------|--------|---------|-------|
-------------2--|--------------------5-3-2--|--------|---------|-------|

Guitar Solo Play 4times

||--------4--2-----|-------------|----------------|------------------------
||
||o----------------|----5--4-----|----2--0--------|------------------------
||
||o----2--------0--|-------------|----------4--2--|-4--2--0---3--2--0--1---
||
||-----------------|-3--------2--|-0--------------|-----------------------
2||


Keyboard Interlude play 2times

||----------------|-------------|-------------|--------------||
||o---2--0--------|-0-----------|-------------|-------1-----o||
||o---------4--0--|----4--2-----|-3--2--1-----|-2--4-----2--o||
||----------------|----------3--|----------2--|--------------||

        drum clicks
|--------------|-------------|-----------------------------------------|
|--------------|-------------|-----------------------------------------|
|----2---------|-------------|-----------------------------------------|
|--------------|-------------|---0----2----3----0----2-----------------|


Guitar Solo play 8 times

||----------------------------|---------------------------------------||
||o------4-----5------2h4-----|----4-----2---------------------------o||
||o---4-----4-----4-----------|-4-----4-----5-4-2--------------------o||
||-------------------------2--|--------------------5-3-2\-------------||


Play 2times

||----------------------------|---------------------------------------||
||o-------5-----6-----3h5-----|----5-----3---------------------------o||
||o----5-----5-----5----------|-5-----5-----6-5-3--------------------o||
||-------------------------3--|--------------------6-4-3--------------||


Play 8 times

||--------4-----5-----2h4-----|----4-----2----------------------------||
||o----4-----4-----4----------|-4-----4-----5-4-2--------------------o||
||o------------------------2--|--------------------5--3--2-----------o||
||----------------------------|---------------------------------------||


|---------------------------------|----------|-----------|------|-------|
|---------------------------------|----------|-----------|------|-------|
|-------2-5-3-2---3-2-----2-------|----------|-----------|-7----|--7----|
|-2-3-5---------5-----5-3---5-3-2-|---0------|-----0-----|-0----|--0----|


|-------------|--------|-------|---------------------------------------|
|-------------|--------|-------|---------------------------------------|
|-------------|--------|-------|--------1-5-3-2---3-2-----2------------|
|----0--------|---0----|----0--|--2-3-5---------5-----5-3---5-3-2------|


Outro Guitar Solo play 3 times

||-------------------|------------|------------|-----------------------|
||o------------------|------------|------------|-----------------------|
||o------------------|------%-----|------%-----|-----------------------|
||---0-0-0-0-0-0-0-0-|------------|------------|-0-0-0-0-0-2-3-2-------|


|-------------------|---------|------------|----------------------------
|-------------------|---------|------------|----------------------------
|-------------------|-----%---|------%-----|-------2-5-3-2---3-2-----2--
|--0-0-0-0-0-0-0-0--|---------|------------|-2-3-5---------5-----5-3----

       fade out on repeat
----------||-----------------------------|----------------|------------|
---------o||o----------------------------|----------------|------------|
---------o||o----------------------------|--------%-------|-----%------|
--5-3-2---||-----2--2--2--2--2--2--2--2--|----------------|------------|


|-------------------------|--------------------------|---------|-------|
|-------------------------|--------------------------|---------|-------|
|-------------------------|--------------------------|-----%---|---%---|
|-2--2--2--2--2--3--5--3--|--2--2--2--2--2--2--2--2--|---------|-------|


|-----------------------------------||
|---------2------------------------o||
|-----2-4---5-4-2-5-4-2---4-2------o||
|-3-5-------------------5-----5-3---||


h = hammeron          Judy Letostak
p = pulloff           Internet letostak@ix.netcom.com
/\ = slide           Fidonet 1:202/762
x = ghost note         MetalNet 182:100/2
t = tap (right hand)      The Music Shop BBS (619)423-4970 24hrs
~ = vibrato           * = picked harmonic
bf = bend full         tr = trill
rb = release bend        p.s. = pick scrape
dive = dive with bar      b = bend / step written over note
% = repeat bar         + = natural harmonic

The Music Shop BBS (619)423-4970 24hrs
Tons of music files, tab, lyrics, pictures, sound files....LORD, BRE
Falcon's Eye (interplanetary). In a band? I have several areas to feature
your band's bio's, lyrics, pictures...Email or call my bbs for more info.
Gossamer Axe, Wilfred N. and the Grown Men, Porcupine 9, Natasha's Ghost,
Nation of Lies...Join the ranks, this service is absolutely FREE!!!!!!!!!
no ratios, no cost!!! 

letostak@ix.netcom.com Judy Letostak
http://www.fortunecity.com/tinpan/agnetha/59/index.html
Metal Edge (619)423-4970 24/7 RioT Member board
Guitar/Bass tab, MP3s, Appz...Iniquity v1.01

Almost there ...

Sign in to get your own page with links to favourite songs and more. You are just one click away...

Login with Facebook Login with Google