Log in

One click and you are in

Login with Facebook Login with Google

Why sign up and log in

Guitar Tabs Explorer
Yngwie Malmsteen tabs for General hospital

Guitar tabs

General Hospital
Yngwie Malmsteen (w/Alcatrazz)
Standard tuning
By upnorth

   Tab starts right after intro

   Gtr1                       Main riff
A chord diagramE MajorE||--------------------------|-----------------------|
A chord diagramBB||--------------------------|-----------------------|
A chord diagramG+G||-----------0--------------|-----------------------|
A chord diagramD MajorD||-----0--2-----------------|--------4----5------4--|
A chord diagramA augmentedA||--3-----------3--2--------|--------5----7------5--|
A chord diagramE MajorE||--------------------5--3--|--0--x-----------------|
   Gtr2
A chord diagramE MajorE||--------------------------|
A chord diagramBB||-----------1--------------|
A chord diagramG+G||--------0--------------0--|
A chord diagramD MajorD||-----2--------------1-----|
A chord diagramA augmentedA||--3--------------2--------|
A chord diagramE MajorE||--------------3-----------|

Gtr1
----------------------|-----------------|----------------------|
----------------------|-2---------------|--1-------------------|
----------------------|-2---------------|--0--------0----------|
----5----4h-5----4~---|-2---------------|--2--------0----------|
----7----5h-7----5~---|-4---------------|--3--------x----------|
----------------------|-----------------|-----------3----3--2--|
Gtr2
----------------------|-----------------|----------------------|
----------------------|-------0---------|------1---------------|
----------------------|-----0-----0-----|--------0-------------|
----------------------|---2---------0---|----2-----------------|
----------------------|-4-------------2-|--3----------2--------|
----------------------|-----------------|-----------3----3--2--|

-----------------------|----------------------|-------------------|
-----------------------|----------------------|--2----------------|
-----------------------|----------------------|--2----------------|
--------4----5------4--|----5----4h-5----4~---|--2----------------|
--------5----7------5--|----7----5h-7----5~---|--4----------------|
--0--0-----------------|----------------------|-------------------|


                                               repeat main riff
--------------------------|-------------------|-----------------------|
--------------------------|-------------------|-----------------------|
-----------0--------------|-------------------|-----------------------|
-----0--2-----------------|-------------------|--------4----5------4--|
--3-----------3--2--------|-------------------|--------5----7------5--|
--------------------5--3--|--0----------------|--0--0-----------------|



Bridge
-------------------|-------------------|------------------------|
--2----------------|--4----------------|--2---------------------|
--2----------------|--4----------------|--2-------------x-x-x-x-|
--2----------------|--4----------------|--2-------------x-x-x-x-|
--0----------------|--2----------------|--0-------------x-x-x-x-|
-------------------|-------------------|------------------0-0-0-|


Gtr1
----------------------|-------------------|-------------------|
----------------------|--2----------------|--4----------------|
--9------9----9----9--|--2----------------|--4----------------|
--6------7----7----7--|--2----------------|--4----------------|
--x-------------------|--0----------------|--2----------------|
----------------------|-------------------|-------------------|
Gtr2
----------------------|-------------------|-------------------|
----------------------|-------------------|-------------------|
----------------------|-------------------|-------------------|
--6------7----7----7--|-------------------|-------------------|
--7------7----7----7--|-------------------|-------------------|
----------------------|-------------------|-------------------|

                               harmonic
-------------------|-------------------|----------------------|
--5----------------|--7--------7*------|----------------------|
--5----------------|--7--------7*------|----------------------|
--5----------------|--7--------7*------|----------------------|
--3----------------|--5----------------|--0-------------------|
-------------------|-------------------|-----3--2--0----------|


Chorus (3x)
------------------------------|------------------------------|
------------------------------|------------------------------|
------------------------------|------------------------------|
------------------------------|------------------------------|
------------------------------|------------------------------|
--2--2-2-2--2-2-2--2-2-2--2-2-|--5--5-5-5--5-5-5--5-5-5--5-5-|

Gtr1
---------------------------------|--------------------------|
---------------------------------|--------------------------|
---------------------------------|--------------------------|
---------------------------------|------2~------------------|
-------------2-----2-4---2-4-5-2-|--4-5---------------------|
--2~-5-2-4-5---4-5-----5---------|-----------2--4--5--4--0--|
Gtr2
---------------------------------|--------------------------|
---------------------------------|--------------------------|
---------------------------------|------0~------------------|
-------------0-----0-2---0-2-3-0-|--2-3---------------------|
--0~-3-0-2-3---2-3-----3---------|--------------------------|
---------------------------------|--------------------------|



ending of fourth
----------------------------|---------------------|
----------------------------|---------------------|
----------------------------|---------------------|
----------------------------|--4--------2---------|
----------------------------|--5--------3----2----|
--2--2-2-2--2-2-2--2-2-2----|----------------0----|


Interlude
---------------------------|----------------------------|
---------------------------|----------------------------|
---------------------------|----------------------------|
-------4-------------------|--------4-------------------|
---------------------------|----------------------------|
--2---------2-2-4-5-2-2-2--|----2-2------2-2-4-5-2-2-2--|


----------------------------|-----------------------|
----------------------------|-----------------------|
----------------------------|-----------------------|
--------4------------4------|------4----------------|
----------------------------|---------19b-----------|
----2-2------2-2-2-2----2-2-|--2-2------------------|




Outro
----------------------------|-------------------------|-------------------|
----------------------------|-------------------------|-------------------|
----------------------------|-------------------------|-------------------|
--------4------------4------|------4------------------|--4----------------|
----------------------------|-------------7--4--5--7--|--2--7--5--4-------|
----2-2------2-2-2-2----2-2-|--2-2--------5--2--3--5--|-----5--3--2--3----|


------||
------||
------||
------||
------||
------||

Almost there ...

Sign in to get your own page with links to favourite songs and more. You are just one click away...

Login with Facebook Login with Google