Log in

One click and you are in

Login with Facebook Login with Google

Why sign up and log in

Guitar Tabs Explorer
Yngwie Malmsteen tabs for Comming bach

Guitar tabs

Coming Bach
Yngwie J. Malmsteen
Upnorth


A chord diagramD#D#||--0-2-3--2-0----0-2------------|--------------------------0--|
A chord diagramA#A#||-------------4------x-0-2-4-5~-|--3-1-0-----------0----------|
A chord diagramF#F#||-------------------------------|---------2-0--------2-0------|
A chord diagramC#C#||-------------------------------|-------------4~---------4-2--|
A chord diagramG#G#||---------0---2--0--------------|---------0---2~-------2------|
A chord diagramD#D#||--3-2-0-----------3-----2---0~-|--2---3-----------3-------0h-|

--0-2-3--2-0----0-2------------|-------------------------------------|
-------------4------x-0-2-4-5~-|--3-1-0--------------0------------12-|
-------------------------------|---------2-0-----------0-------12----|
-------------------------------|-------------4h5h4-----0----12-------|
---------0---2--0--------------|---------3---5-----5~--2-------------|
--3-2-0-----------3-----2---0~-|--2---3----------------3-------------|


-----------------3--------------|
--0---3-0---1-0----3-5-3-0-3-1--|
----0-----2---------------------|
----------0---------------------|
-----------------2---3-------0--|
--3---2-------3--------4---2----|


-----------------------------------------------|
--0---------0-1-0------------------------------|
----1-2h1h2-------------------2----------------|
--0-----2-----2---2----------------------------|
----------0-----------2-0-3---0h2h0------------|
----------------0---3-------3-------3h2h3h2h3--|


---------3-------------5------|---------------------------------|
----1-0----3-5--0-3-1----5-7--|--3-2-0-3h4h3---0-0--------------|
--2---------------------------|------------4--------------------|
--0---------------------------|----2----------------------------|
---------2---3------0--4---5--|--2---------------2-1-2-4h6~-----|
------3---------4-------------|--------------2------------------|


--7----------5--0-3-2h3h2h3h2h0---3--|----------5-------------0-----|
----7-9--7-5--------------------3----|--3-6-5-----5-7~-2-5-4~---0~--|
-------------------------------------|--------x---------------------|
---------0----------0----------------|------------------------------|
------7------4--0-------------3---2--|------3---2---0~-----2~-------|
--7----------------------------------|-----------------2------4-----|


--------------------------------|---------------------------------|---||
----3---0---1~-------0----------|---------------------------------|---||
------2--------0-2-------0~-----|---------------------------------|---||
--2h4-----1/2~-------1-4----4h2-|--0/7--5--4h5h4-5h4h5h4h2--2-----|---||
-------------------4-----7~-0---|-------0-------------------------|---||
--------3--------2--------------|---------------------------0-----|---||

Almost there ...

Sign in to get your own page with links to favourite songs and more. You are just one click away...

Login with Facebook Login with Google