Log in

One click and you are in

Login with Facebook Login with Google

Why sign up and log in

Guitar Tabs Explorer
Yngwie Malmsteen tabs for Braveheart

Guitar tabs

Song Title: "Bravehart"
Album: Facing the Animal
Anthony127@comcast.net or P42GDell@hotmail.com
 

Here is a version I tabbed out in regular tuning:
A chord diagramE MajorE A chord diagramA augmentedA A chord diagramD MajorD A chord diagramG+G A chord diagramBB A chord diagramE MajorE for those of us who are lazy and don't
feel like retuning and just want to jam along. I
know some people may point out errors or play a part
differently. THIS IS MY TRANSCRIPTION OF THE SONG.
NOT ALL PARTS WILL BE EXACT TO THE ALBUM so if you
would like to offer any suggestions, comments, or
questions please let me know. Use this for self
practice and entertainment only. Enjoy!
 
__________________________________________________
h - hammer on
p - pull off
~~ - vibrato
pm - muted string
9\7 - slide down(only the 9 is striked)
4/6 - slide up(only the 4 is striked)
9--(9) - play the note and let it ring
trill - hammer on and pull off as fast as possible
__________________________________________________
 
(Tempo=160)
 
 Intro (play twice)     
|-----------------------------------------------------------
|-----------------------------------------------------------
|------------------------------------------6---6-8-6-8-9-8-6
|-----------------------6----6-8-6-8-9-8-9---9--------------
|-------6-7-6-7-10-7-10---10--------------------------------
|-----------------------------------------------------------
 
-------------------------------------------------------|
-------------------------------------------------------|
-9-8-6-8-6---6-----------------------------------------|
-----------9---9-8-9-8-6-8-6----6-----------------6--8-|
-----------------------------10---10-7-66666666---4--6-|
-------------------------------------------------------|
 

(Play 4 times)
 pm................|     pm........|
|------------------------------------------------|
|------------------------------------------------|
|------------------------------------------------|
|-8-----------------6/8--------------9---(9)---\-|
|-6-6--6-6-6-6--6-6-4/6--6--6--6--6--7---(7)---\-|
|-----------------------------------------7----\-|
 1.  Closing  my  mouth     before I scream^Å
 

(Play twice)
              trill    ~~   
|-------------------------------------
|-------------------------------------
|-------6-8-9-8(9)-----3-4-6-4-3-4----
|-6-8-9--------------6----------------
|-------------------------------------
|-------------------------------------
 
     hpp
---------------------------------------|
---------------------------------------|
------6-8-9-8987-7---------------------|
6-8-9-------------9-8-6----------------|
------------------------7-6------------|
----------------------------9-7-6-4----|
 

    pm.............................|    
|-----------------------------------------
|-----------------------------------------
|-----------------------------------------
|------------------------------------6-8--
|-6-666666-6666666666--666666-666666-4-6--
|-----------------------------------------
 
  pm....................|
-----------------------------------|
-----------------------------------|
-----------------------------------|
---------------------------6---9---|
--6-666666-66666-66666666--4---7---|
-----------------------------------|
 

 (play twice)     
|-----------------------------------------------------
|-----------------------------------------------------
|------------------------------------6---6-8-6-8-9-8-6
|-----------------6----6-8-6-8-9-8-9---9--------------
|-6-7-6-7-10-7-10---10--------------------------------
|-----------------------------------------------------
 
-------------------------------------------------------|
-------------------------------------------------------|
-9-8-6-8-6---6-----------------------------------------|
-----------9---9-8-9-8-6-8-6----6-----------------6--8-|
-----------------------------10---10-7-66666666---4--6-|
-------------------------------------------------------|
 

1:33 (Play twice)
 pm................|     pm........|
|------------------------------------------------|
|------------------------------------------------|
|------------------------------------------------|
|-8-----------------6/8--------------9---(9)---\-|
|-6-6--6-6-6-6--6-6-4/6--6--6--6--6--7---(7)---\-|
|-----------------------------------------7----\-|
 2. Go on and sleep the sleep of the...   
 

(Play twice)
              trill    ~~   
|-------------------------------------
|-------------------------------------
|-------6-8-9-8(9)-----3-4-6-4-3-4----
|-6-8-9--------------6----------------
|-------------------------------------
|-------------------------------------
 
     hpp
---------------------------------------|
---------------------------------------|
------6-8-9-8987-7---------------------|
6-8-9-------------9-8-6----------------|
------------------------7-6------------|
----------------------------9-7-6-4----|
 
 
(Play twice)
    pm.............................|    
|-----------------------------------------
|-----------------------------------------
|-----------------------------------------
|------------------------------------6-8--
|-6-666666-6666666666--666666-666666-4-6--
|-----------------------------------------
 
  pm....................|
------------------------------------|
------------------------------------|
------------------------------------|
---------------------------6---9--\-|
--6-666666-66666-66666666--4---7--\-|
------------------------------------|
 

(Play twice)
              trill    ~~   
|-------------------------------------
|-------------------------------------
|-------6-8-9-8(9)-----3-4-6-4-3-4----
|-6-8-9--------------6----------------
|-------------------------------------
|-------------------------------------
 
     hpp
---------------------------------------|
---------------------------------------|
------6-8-9-8987-7---------------------|
6-8-9-------------9-8-6----------------|
------------------------7-6------------|
----------------------------9-7-6-4----|
 

                 trill        ~~  
|-----------------------------------------
|---------7-9-10-9(10)------4-5-7-5-4-5---
|---6-8-9-----------------6---------------
|-----------------------------------------
|4----------------------------------------
|-----------------------------------------
 
       hpp
---------------------------------------|
------7-9-10-91097-7-------------------|
6-8-9---------------9-8-6--------------|
--------------------------7-6----------|
------------------------------9-7-6-4--|
---------------------------------------|
 

              trill    ~~   
|-------------------------------------
|-------------------------------------
|-------6-8-9-8(9)-----3-4-6-4-3-4----
|-6-8-9--------------6----------------
|-------------------------------------
|-------------------------------------
 
     hpp
---------------------------------------|
---------------------------------------|
------6-8-9-8987-7---------------------|
6-8-9-------------9-8-6----------------|
------------------------7-6------------|
----------------------------9-7-6-4---\|
 
 
 
2:46
(Play twice)                 (1stending)  (2nd ending) 
|-------------------------------------|-------------|-----------|
|--------4-----6-----7-6-4-6----------|-------------|-----------|
|--4-3-3---3-3---3-3---------3-3-3-3-3|---3-4-6-4-3-|-5/6-4-3---|
|-------------------------------------|-6-----------|--------6--|
|-------------------------------------|-------------|-----------|
|-------------------------------------|-------------|-----------|
 

(Play twice)                 (1stending)  (2nd ending)      
|--------4-----6-----7-6-4-6----------|-------------|----------|
|--5-4-4---4-4---4-4---------4-4-4-4-4|---4-5-7-5-4-|-6/7-6-4--|
|-------------------------------------|-6-----------|--------3-|
|-------------------------------------|-------------|----------|
|-------------------------------------|-------------|----------|
|-------------------------------------|-------------|----------|
 

(Play twice)                 (1stending)  (2nd ending) 
|-------------------------------------|-------------|-----------|
|--------4-----6-----7-6-4-6----------|-------------|-----------|
|--4-3-3---3-3---3-3---------3-3-3-3-3|---3-4-6-4-3-|-5/6-4-3---|
|-------------------------------------|-6-----------|--------6--|
|-------------------------------------|-------------|-----------|
|-------------------------------------|-------------|-----------|
 

Guitar solo.....
 
(maybe if i get a lot of time down the road I will tab out the solo.
Just way to much right now. Some of it I can't play yet so I just
improvise while jamming along...hehe)


Yngwie Malmsteen  "Bravehart"
from Facing the Animal
yanick.degrandpre@bell.ca




Closing my mouth ...

Whisper my name...


 0:55
|-----------------------|------------------------------
|-----------------------|------------------------------
|-----------9-12-11tr---|----6-7-9-7-6-7~--------------
|---9-11-12-------------|--9---------------------------
|-----------------------|------------------------------
|-----------------------|------------------------------
 1.This    (this)       Game     (Game)         You
 2.Who     (who)        is       (is)           Free


|------------------------------------------------------
|------------------------------------------------------
|-----------9-12-11tr---9------------------------------
|---9-11-12---------------12-11-9-8--------------------
|-----------------------------------10-9-( )-----------
|------------------------------------------------------
 Can't win.
 from sin.


I won't be afraid
My soul will remain

Go on and sleep...

One day you will know...


 2:47 (2x)
|----------------------------------|-----------------------
|-0-0-0-3-0-0-5-0-0-7-0-0-8-7-5-7~-|0-0-0-0---0-2-5-3-2-3--
|----------------------------------|--------3--------------
|----------------------------------|-----------------------
|----------------------------------|-----------------------
|----------------------------------|-----------------------


--------------------------|--------------------------------
-0-0-5-0-0-7-0-0-8-7-5-7~-|0-0-0-5-3-2---------------------
--------------------------|------------3-------------------
--------------------------|--------------------------------
--------------------------|--------------------------------
--------------------------|--------------------------------


 2:59 (2x)
|-0-0-0-3-0-0-5-0-0-7-0-0-8-7-5-7~-|0-0-0-0---0-2-5-3-2-3--
|----------------------------------|--------4--------------
|----------------------------------|-----------------------
|----------------------------------|-----------------------
|----------------------------------|-----------------------
|----------------------------------|-----------------------


-0-0-5-0-0-7-0-0-8-7-5-7~-|0-0-0-5-3-2---------------------
--------------------------|------------4-------------------
--------------------------|--------------------------------
--------------------------|--------------------------------
--------------------------|--------------------------------
--------------------------|--------------------------------

Judy Letostak. Where are you ? I owe you all my guitar knowledge
We're missing your tabs ...

Almost there ...

Sign in to get your own page with links to favourite songs and more. You are just one click away...

Login with Facebook Login with Google