Log in

One click and you are in

Login with Facebook Login with Google

Why sign up and log in

Guitar Tabs Explorer
Malefice tabs for End of days

Guitar tabs with lyrics

Hello everybody, Been awhile since I have tabbed a song, All by ear.
I had no reference as I was looking for a tab for this GREAT song
when I couldn't find any, I decided to tab it myself so you can all play along.
I am POSITIVE this is dead on accurate. You'll love this song, It's
very fun to play!

***This Tab took me about 4 hours 30 minutes to make***

//You can reach me at Judzfell@hotmail.com
//for any questions, comments, or feedback :)
Tuning Drop A chord diagramBB

🏷Legend
- h    = Hammer on
- /    = slide
- <---> = palm mute


Opening x2  (0 - 14 seconds)

C#-----------------------------|
G#-----------------------------|
A chord diagramE MajorE -----------------------------| * Individual chords, Strum In    *
A chord diagramBB --10--8--3--3--5--3--5-------| * synchronization with the song! *
F#--8---6--5--4--6--4--6-------|
A chord diagramBB --10--8----------------------|


Fill x4  (15 - 23 seconds)

C#---------------------------------------|
G#---------------------------------------|
A chord diagramE MajorE ---------------------------------------|
A chord diagramBB ---------------------------------------|
F#---------------------------------------|
A chord diagramBB -2h3--2--2-2-2-2-2-2-2-2-2-2---2/5--6--|
          |<-Repeatedly Fast->|

Pre verse  (24 - 33 seconds)

C#------------------------------|------------------------------|
G#------------------------------|------------------------------|
A chord diagramE MajorE ------------------------------|------------------------------|
A chord diagramBB ------6--5--------------------|------8--6--10--8---6----6h8--|
F#------------4--6-x-4--x--4h6--|------------------------------|
A chord diagramBB --3-x-------------------------|--6-x-------------x----x------|
   <->                            <->

C#------------------------------|--------------------------|
G#------------------------------|--------------------------|
A chord diagramE MajorE ------1--0--3--1-x-0--x--0h1--|------1--0--3--1-x-5h3/1--|
A chord diagramBB ------------------------------|--------------------------|
F#------------------------------|--------------------------|
A chord diagramBB --1-x-------------------------|--1-x---------------------|
   <->                            <->

Verse x2  (34 - 50 seconds)

C#------------------------------|-------------------------------|
G#------------------------------|-------------------------------|
A chord diagramE MajorE ------------------------------|-------------------------------|
A chord diagramBB ------6--5--------------------|------8--6--10--8---6-----6h8--|
F#------------4--6-x-4--x--4h6--|-------------------------------|
A chord diagramBB --3-x-------------------------|--6-x-------------x----x-------|
   <->                            <->
  ------------------------------|----------------------------|
  ------------------------------|----------------------------|
  ------5--3--6--5-x-3--x--3h5--|------5--3--6--3h5-------5--|
  ------------------------------|------------------------6---|
  ------------------------------|----------------------------|
  --1-x-------------------------|--1-x---------------xx------|
   <->                            <->

  ---------------------------------|  * Replace this  -- *
  ------------------------------------------------------ *
  ------5--3--6--3h5----3h6h5h3h5--|  * with last bar -- *
  --------------------6--------------------------------- *
  ---------------------------------|  * on second time-- *
  --1-x------------------------------------------------- *
   <->


Chorus  (52 - 1:08 minutes)

C#----------------------------------------------------------------------- *
G#----------------------------------------------------------|*Individual  *
A chord diagramE MajorE ----------------------------------------------------------------------- *chords, strum*
A chord diagramBB --6--5--3-5-6----6--5--3-5-6----6--5--3-------6--5--6-----|*strum in    *
F#--3--3--3-3-3----6--6--6-6-6----5--5--5--6----4--4--4--6--|*sync with   *
A chord diagramBB -----------------------------------------8-------------8--|*the song!   *

Fill x4  (1:09 - 1:17 minutes)

C#---------------------------------------|
G#---------------------------------------|
A chord diagramE MajorE ---------------------------------------|
A chord diagramBB ---------------------------------------|
F#---------------------------------------|
A chord diagramBB -2h3--2--2-2-2-2-2-2-2-2-2-2---2/5--6--|


Verse x2  (1:18 - 1:35 minutes)

C#------------------------------|-------------------------------|
G#------------------------------|-------------------------------|
A chord diagramE MajorE ------------------------------|-------------------------------|
A chord diagramBB ------6--5--------------------|------8--6--10--8---6-----6h8--|
F#------------4--6-x-4--x--4h6--|-------------------------------|
A chord diagramBB --3-x-------------------------|--6-x-------------x----x-------|
   <->                            <->
  ------------------------------|----------------------------|
  ------------------------------|----------------------------|
  ------5--3--6--5-x-3--x--3h5--|------5--3--6--3h5-------5--|
  ------------------------------|------------------------6---|
  ------------------------------|----------------------------|
  --1-x-------------------------|--1-x---------------xx------|
   <->                            <->

  ---------------------------------|  * Replace this  -- *
  ------------------------------------------------------ *
  ------5--3--6--3h5----3h6h5h3h5--|  * with last bar -- *
  --------------------6--------------------------------- *
  ---------------------------------|  * on second time-- *
  --1-x------------------------------------------------- *
   <->


Chorus x2  (1:37 - 2:10 minutes)

C#----------------------------------------------------------------------- *
G#----------------------------------------------------------|*Individual  *
A chord diagramE MajorE ----------------------------------------------------------------------- *chords, strum*
A chord diagramBB --6--5--3-5-6----6--5--3-5-6----6--5--3-------6--5--6-----|*strum in    *
F#--3--3--3-3-3----6--6--6-6-6----5--5--5--6----4--4--4--6--|*sync with   *
A chord diagramBB -----------------------------------------8-------------8--|*the song!   *


(2:10 - 2:12 minutes)
C#-----------|
G#-----------|
A chord diagramE MajorE -----------|
A chord diagramBB --3--------|
F#--3--------|
A chord diagramBB --3--------|
 * let Ring *


Solo x16  (2:12 - 2:27 minutes)

C#----------||------------------|
G#--------13||-------------13---|
A chord diagramE MajorE --13-12---||--10h12h13h12-----|
A chord diagramBB ----------||------------------|
F#----------||------------------|
A chord diagramBB ----------||------------------|
            *repeat this part after playing first part*


Solo  (2:27 - 2:41 minutes)
C#----------------------------------------------------------------11-----------11-|
G#------------13-----------13-----------13-----------13---------------------------|
E--10h12h13h12--10h12h13h12--10h12h13h12--10h12h13h12--10h12h13h12--10h12h13h12---|
B---------------------------------------------------------------------------------|
F#--------------------------------------------------------------------------------|
B---------------------------------------------------------------------------------|

  --------------------------------|
  --------------13------------13--|
  --10h12h13h12---10h12h13h12-----|
  --------------------------------|
  --------------------------------|
  --------------------------------|

-----------------------------------------------------------------11-----------11-|
-------------14-----------14-----------13-----------13---------------------------|
--10h12h13h12--10h12h13h12--10h12h13h12--10h12h13h12--10h12h13h12--10h12h13h12---|
---------------------------------------------------------------------------------|
---------------------------------------------------------------------------------|
---------------------------------------------------------------------------------|

  -------------13-----------13-|
  -----------------------------|
  --10h12h13h12--10h12h13h12---|
  -----------------------------|
  -----------------------------|
  -----------------------------|


Bridge x16 (2:42 - 2:56 minutes)

C#----------------------------|
G#----------------------------|
A chord diagramE MajorE ----------------------------|
A chord diagramBB ----------------------------|
F#---------2------------------|
A chord diagramBB --2h4h3h2-------------------|


Build x2  (2:57 - 3:02 minutes)

C#------------------------------|
G#------------------------------|
A chord diagramE MajorE ------------------------------|
A chord diagramBB ------6--5--------------------|
F#------------4--6-x-4-----4h6--|
A chord diagramBB --3-x-----------------x-------|


Verse x2  (3:02 - 3:19 minutes)

C#------------------------------|-------------------------------|
G#------------------------------|-------------------------------|
A chord diagramE MajorE ------------------------------|-------------------------------|
A chord diagramBB ------6--5--------------------|------8--6--10--8---6-----6h8--|
F#------------4--6-x-4--x--4h6--|-------------------------------|
A chord diagramBB --3-x-------------------------|--6-x-------------x----x-------|
   <->                            <->
  ------------------------------|----------------------------|
  ------------------------------|----------------------------|
  ------5--3--6--5-x-3--x--3h5--|------5--3--6--3h5-------5--|
  ------------------------------|------------------------6---|
  ------------------------------|----------------------------|
  --1-x-------------------------|--1-x---------------xx------|
   <->                            <->

  ---------------------------------|  * Replace this  -- *
  ------------------------------------------------------ *
  ------5--3--6--3h5----3h6h5h3h5--|  * with last bar -- *
  --------------------6--------------------------------- *
  ---------------------------------|  * on second time-- *
  --1-x------------------------------------------------- *
   <->


Chorus x3  (3:21 - 4:11 minutes)

C#----------------------------------------------------------------------- *
G#----------------------------------------------------------|*Individual  *
A chord diagramE MajorE ----------------------------------------------------------------------- *chords, strum*
A chord diagramBB --6--5--3-5-6----6--5--3-5-6----6--5--3-------6--5--6-----|*strum in    *
F#--3--3--3-3-3----6--6--6-6-6----5--5--5--6----4--4--4--6--|*sync with   *
A chord diagramBB -----------------------------------------8-------------8--|*the song!   *


Outro  (4:11 - 4:15 minutes)

C#------------------------------------------------------------|
G#------------------------------6h4---4---------1h2-2h1-------|
A chord diagramE MajorE ---------------------------------6h5-5h3/1-1h3-------3h1----|
A chord diagramBB ------6--5-----------------------------------------------3--|
F#------------4--6-x-4-----4h6-----------------------------3--|
A chord diagramBB --3-x----------------------------------------------------3--|

Almost there ...

Sign in to get your own page with links to favourite songs and more. You are just one click away...

Login with Facebook Login with Google