Log in

One click and you are in

Login with Facebook Login with Google

Why sign up and log in

Guitar Tabs Explorer
Taj Mahal bass tabs for Good morning miss brown

Good Morning Miss Brown bass tab by Taj Mahal

Taj Mahal bass tabs for Good morning miss brown

Bass tabs

std tuning


INTRO
G |------R----------|--------R--------|--------R--------|-------R---------|
D |-----------------|-----------------|-----------------|-----------------|
A |-----------------|-----------------|-----------------|-----------------|
E |-----------------|-----------------|-----------------|-----------------|
  1 & 2 & 3 & 4 &  1 & 2 & 3 & 4 &  1 & 2 & 3 & 4 &  1 & 2 & 3 & 4 &

G |------R----------|--------R--------|--------R--------|-------R---------|
D |-----------------|-----------------|-----------------|-----------------|
A |-----------------|-----------------|-----------------|-----------------|
E |-----------------|-----------------|-----------------|-----------------|
  1 & 2 & 3 & 4 &  1 & 2 & 3 & 4 &  1 & 2 & 3 & 4 &  1 & 2 & 3 & 4 &

REPEEAT THIS RIFF FOR WHOLE SONG
G |---------2---4---|-5---4---2-------|-----------------|-----------------|
D |-----4-----------|-------------4---|-----4---2---4---|-----4---2---4---|
A |-5---------------|-----------------|-----------------|-----------------|
E |-----------------|-----------------|-5---------------|-5---------------|
  1 & 2 & 3 & 4 &  1 & 2 & 3 & 4 &  1 & 2 & 3 & 4 &  1 & 2 & 3 & 4 &

G |---------2---4---|-5---4---2-------|-----------------|-----------------|
D |-----4-----------|-------------4---|-----4---2---4---|-----4---2---4---|
A |-5---------------|-----------------|-----------------|-----------------|
E |-----------------|-----------------|-5---------------|-5---------------|
  1 & 2 & 3 & 4 &  1 & 2 & 3 & 4 &  1 & 2 & 3 & 4 &  1 & 2 & 3 & 4 &

G |---------4---6---|-7---------------|-----------------|-----------------|
D |-----6-----------|---------4---7---|-----4---2---4---|-----------------|
A |-7---------------|-----5-----------|-----------------|-----------------|
E |-----------------|-----------------|-5---------------|-5---3---2---0---|
  1 & 2 & 3 & 4 &  1 & 2 & 3 & 4 &  1 & 2 & 3 & 4 &  1 & 2 & 3 & 4 &

ENDINGG
G |-----------------|-----------------|
D |-----------------|-----------------|
A |-----4---5---6---|-7---------------|
E |-5---------------|-----2---4---5---|
  1 & 2 & 3 & 4 &  1 & 2 & 3 & 4 &

Almost there ...

Sign in to get your own page with links to favourite songs and more. You are just one click away...

Login with Facebook Login with Google