Log in

One click and you are in

Login with Facebook Login with Google

Why sign up and log in

Guitar Tabs Explorer
Magnus Haven bass tabs for Imahe

Bass tabs

Tuning: Standard (E A D G)


Intro:

G|--------------------|-------------------|-------------------|------6------------|
D|--------------------|-------------------|-------------------|---6---------------|
A|5-------------------|4------------------|5------------------|4------------------|
E|--------------------|-------------------|-------------------|-------------------|
Verse 1:

G|--------------------|-------------------|-------------------|-------------------|
D|--------------------|-------------------|-------------------|-------------------|
A|5-------------------|4------------------|5------------------|4------------------|
E|--------------------|-------------------|-------------------|-------------------|

G|--------------------|-------------------|-------------------|-------------------|
D|--------------------|-------------------|-------------------|-------------------|
A|5-------------------|4------------------|5------------------|4--------------4/2-|
E|--------------------|-------------------|-------------------|-------------------|


Refrain:

G|--------------------|-------------------|-------------------|-------------------|
D|--------------------|-------------------|-------------------|-------------------|
A|2-2-2-2-2-2-2-2\4---|4-4-4-4-4-4-4-4/2--|2-2-2-2-2-2-2-2\7--|7-7-7-7------------|
E|--------------------|-------------------|-------------------|--------0----------|


Chorus:

G|--------------------|---------------6---|-------------------|---------------6---|
D|--------------------|-------------6-----|-------------------|-------------6-----|
A|5---------------5/4-|4----------------4-|5------------------|4----------------4-|
E|--------------------|-------------------|-------------------|-------------------|

G|--------------------|---------------6---|-------------------|-------------------|
D|--------------------|-------------6-----|-------------------|-------------------|
A|5---------------5/4-|4----------------4-|5------------------|4---------------4/2|
E|--------------------|-------------------|-------------------|-------------------|

G|--------------------|-------------------|-------------------|-------------------|
D|--------------------|-------------------|-------------------|-------------------|
A|2-2-2-2-2-2-2-2\4---|4-4-4-4-4-4-4-4/2--|2-2-2-2-2-2-2-2\7--|7-7-7-7------------|
E|--------------------|-------------------|-------------------|--------0----------|

Instrumental:

G|----------------7---|-------------------|-------------------|----6--------------|
D|--------------7-----|-------------------|-------------------|--6----------------|
A|5-----------------5-|4------------------|5------------------|4------------------|
E|--------------------|-------------------|-------------------|-------------------|


Verse 2:

G|--------------------|---------------6---|-------------------|-------------------|
D|--------------------|-------------6-----|-------------------|-------------------|
A|5-------------------|4----------------4-|5------------------|-------------------|
E|--------------------|-------------------|-------------------|9/0----------------|

G|--------------------|-------------------|-------------------|-------------------|
D|--------------------|-------------------|-------------------|-------------------|
A|5-------------------|4----------------4-|5------------------|4--------------4/2-|
E|--------------------|-------------------|-------------------|-------------------|


Refrain:

G|--------------------|-------------------|-------------------|-------------------|
D|--------------------|-------------------|-------------------|-------------------|
A|2-2-2-2-2-2-2-2\4---|4-4-4-4-4-4-4-4/2--|2-2-2-2-2-2-2-2\7--|7-7-7-7------------|
E|--------------------|-------------------|-------------------|--------0----------|


Chorus:

G|---------7----------|--------6----------|---------7---------|----------6--------|
D|-------7---7--------|------6---6--------|-------7---7-------|--------6---6------|
A|5------------5------|4-----------4------|5------------5-----|4-------------4----|
E|--------------------|-------------------|-------------------|-------------------|

G|---------7----------|--------6----------|---------7---------|----------6--------|
D|-------7---7--------|------6---6--------|-------7---7-------|--------6---6------|
A|5------------5------|4-----------4------|5------------5-----|4-------------4----|
E|--------------------|-------------------|-------------------|-------------------|

G|--------------------|-------------------|-------------------|-------------------|
D|--------------------|-------------------|-------------------|-------------------|
A|2-2-2-2-2-2-2-2\4---|4-4-4-4-4-4-4-4/2--|2-2-2-2-2-2-2-2\7--|7-7-7-7------------|
E|--------------------|-------------------|-------------------|--------0----------|


Instrumental:

G|--------------------|-------------------|-------------------|-------------------|
D|--------------------|-------------------|-------------------|-------------------|
A|5--------------5/4--|4-------------4/5--|5-------------5/4--|4--------------4/2-|
E|--------------------|-------------------|-------------------|-------------------|

G|--------------------|-------------------|-------------------|-------------------|
D|--------------------|-------------------|-------------------|-------------------|
A|2--------------2\4--|4-------------4/2--|2----2/4-4----4/7--|7-7-7-7------------|
E|--------------------|-------------------|-------------------|--------0---0-0----|


Chorus:

G|--------------------|14-16-14-13--------|-------------------|-------------------|
D|--------------------|-----------14-11---|-------------------|-------------------|
A|--------------------|-----------------14|12-----------------|-------------------|
E|--------------------|-------------------|-------------------|-------------------|

G|--------------------|------13h14p13-----|-------------------|-------------------|
D|--------------------|--11---------------|-------------------|-------------------|
A|--------------------|9------------------|-------------------|-------------------|
E|10-------------10h12|-------------------|-------------------|9---------------9/7|

G|--------------------|-------------------|-------------------|-------------------|
D|--------------------|-------------------|-------------------|-------------------|
A|--------------------|4---4---4---4------|--------4---4------|7-7-7-7------------|
E|7-5-7-5-7-5-7-5-----|--5---5---5---5----|7-5-7-5---5---5----|--------0----------|

G|---------7----------|--------6----------|---------7---------|----------6--------|
D|-------7---7--------|------6---6--------|-------7---7-------|--------6---6------|
A|5------------5------|4-----------4------|5------------5-----|4-------------4----|
E|--------------------|-------------------|-------------------|-------------------|

G|---------7----------|--------6----------|---------7---------|----------6--------|
D|-------7---7--------|------6---6--------|-------7---7-------|--------6---6------|
A|5------------5------|4-----------4------|5------------5-----|4-------------4/2--|
E|--------------------|-------------------|-------------------|-------------------|

G|--------------------|-------------------|-------------------|-------------------|
D|--------------------|-------------------|-------------------|-------------------|
A|2-2-2-2-2-2-2-2\4---|4-4-4-4-4-4-4-4/2--|2-2-2-2-2-2-2-2\7--|7-7-7-7------------|
E|--------------------|-------------------|-------------------|--------0----------|


Outro:

G|--------------------|-------------------|-------------------|-------------------|
D|--------------------|-------------------|-------------------|---6---------------|
A|5-------------------|4------------------|5------------------|4------------------|
E|--------------------|-------------------|-------------------|-----2~------------|



************************************

| /  Slide up
| \  Slide down
| h  Hammer-on
| p  Pull-off
| ~  Let ring

************************************

Almost there ...

Sign in to get your own page with links to favourite songs and more. You are just one click away...

Login with Facebook Login with Google