Log in

One click and you are in

Login with Facebook Login with Google

Why sign up and log in

Guitar Tabs Explorer
The Magic Numbers bass tabs for Forever lost

Bass tabs

Verse
very simple riff throughout the verses:

G|-------------|
D|----2-2------|    repeat
A|--2----------|
E|-------------|
Chorus
G|-------------------|-----------------|---------------|--------------|
D|----7-7------------|-----9-9---------|----6-6--------|--------------|  repeat
A|-------------------|-----------------|---------------|-4--6--5--7---|  until
E|-5------5/---------|-7--------7/-----|-4------4------|--------------|


Bridge
G|---------|---------|
D|---------|---------|
A|9--(hold)|---------|
E|---------|7--(hold)|


Middle Eight:
(broken up into groups of four but play them straight through)

G|-----------------------------------|---------------------------6-4-6-4|
D|-----------------------------------|----------------------------------|
A|-7-7-7-7--7-7-7-7--7-7-7-7--7-7-6-6|-4-4-4-4--4-4-4-4--4-4-4-4--------|
E|-----------------------------------|----------------------------------|

G|-----------------------------------|---------------------------------------|
D|-6-6-6-6--6-6-6-6--6-6-6-6--6-4-6--|-9-9-9-9--9-9-9--9-9-9-9-----9-------|
A|-----------------------------------|----------------------------11---11-9--|
E|-----------------------------------|---------------------------------------|

repeat

end with:

G|----------|----------|----------|----------|
D|----------|----------|----------|----------|
A|-7-7------|-7-7------|-7-7------|-7-7------|
E|--------7-|--------7-|--------7-|--------4-|

G|----------|----------|----------|----------|
D|----------|----------|----------|----------|
A|-4-4------|-4-4------|-4-4------|-4-4------|
E|--------4-|--------4-|--------4-|--------6-|

G|----------|
D|-6-6------|  x 4
A|--------6-|
E|----------|

G|---------------------------------------|
D|-9-9-9-9--9-9-9-9--9-9-9-9-----9-------|
A|----------------------------11---11-9--|
E|---------------------------------------|

G|----------|----------|----------|----------|
D|----------|----------|----------|----------|
A|-7-7------|-7-7------|-7-7------|-7-7------|
E|--------7-|--------7-|--------7-|--------4-|


G|----------|----------|----------|----------|
D|----------|----------|----------|----------|
A|-4-4------|-4-4------|-4-4------|-4-4------|
E|--------4-|--------4-|--------4-|--------6-|

G|----------|----------|----------|----------|----------|
D|------6---|------6---|------6---|------6---|----6--7--|
A|--6-------|--6-------|--6-------|--6-------|--6-------|
E|----------|----------|----------|----------|----------|

Pause


Chorus


Verse

end on:

G|-------------|
D|------2------|
A|-------------|
E|-------------|

Almost there ...

Sign in to get your own page with links to favourite songs and more. You are just one click away...

Login with Facebook Login with Google