Log in

One click and you are in

Login with Facebook Login with Google

Why sign up and log in

Guitar Tabs Explorer
The Magic Gang bass tabs for Lady please

Bass tabs

Tuning: EADG

G|----------------|
D|----------------|
A|--------9-----/-|
E|7---------------|

G|----------------------------------------------------------------|
D|------------9---------------9-----------------------------------|
A|11--------------11--------------11--------------7-------9-------|
E|----------------------------------------------------------------|

G|----------------------------------------------------------------|
D|--------------------------------9-------------------------------|
A|------------9---------------9---------------------------9-------|
E|7---------------7-------------------------------7---------------|

0:09

G|----------------------------------------------------------------|
D|------------9---------------9-----------------------------------|
A|11--------------11--------------11--------------7-------9-------|
E|----------------------------------------------------------------|

G|----------------------------------------------------------------|
D|----------------------------------------------------------------|
A|------------9---------------9---------------------------9-----/-|
E|7---------------7---------------7---------------7---------------|

G|----------------------------------------------------------------|
D|------------9---------------9-----------------------------------|
A|11--------------11--------------11--------------7-------9-------|
E|----------------------------------------------------------------|

G|----------------------------------------------------------------|
D|----------------------------------------------------------------|
A|------------9---------------9-----------------------------------|
E|7---------------7---------------7---------------7-------5-------|

0:24

G|----------------------------------------------------------------|
D|----------------------------------------------------------------|
A|7-----------7---7-----------7---7-----------7-----------6-------|
E|------------------------------------------------9---------------|

G|----------------------------------------------------------------|
D|9---------------------------------------------------------------|
A|----------------------------------------------------------------|
E|------------7---7-----------7---5---5---5---5---5---5---5-------|

0:32

G|----------------------------------------------------------------|
D|----------------------------------------------------------------|
A|----------------------------------------------------------------|
E|0---------------------------------------------------------------|

G|----------------------------------------------------------------|
D|----------------------------------------------------------------|
A|----------------------------------------------------------------|
E|7-------------------------------5-------------------------------|

G|----------------------------------------------------------------|
D|----------------------------------------------------------------|
A|----------------------------------------------------------------|
E|0---------------------------------------------------------------|

G|----------------------------------------------------------------|
D|----------------------------------------------------------------|
A|----------------------------------------------------------------|
E|7-------------------------------5-----------------------5---/---|

G|----------------------------------------------------------------|
D|----------------------------------------------------------------|
A|--------------------------------------------------------9-----/-|
E|12--12--12--12--12--12--12--12--12--------------7---------------|

0:52

G|----------------------------------------------------------------|
D|------------9---------------9-----------------------------------|
A|11--------------11--------------11--------------7-------9-------|
E|----------------------------------------------------------------|

G|----------------------------------------------------------------|
D|--------------------------------9-------------------9-------11--|
A|------------9---------------9-------------------11------9-------|
E|7---------------7-----------------------------------------------|

1:00

G|----------------------------------------------------------------|
D|------------9---------------9-----------------------------------|
A|11--------------11--------------11--------------7-------9-------|
E|----------------------------------------------------------------|

G|----------------------------------------------------------------|
D|----------------------------------------------------9-------11--|
A|------------9---------------9---------------------------9-------|
E|7---------------7---------------7-------------------------------|

G|----------------------------------------------------------------|
D|------------9---------------9-----------------------------------|
A|11--------------11--------------11--------------7-------9-------|
E|----------------------------------------------------------------|

G|----------------------------------------------------------------|
D|--------------------------------------------------------7-------|
A|------------9---------------9-----------------------------------|
E|7---------------7---------------7---------------7---------------|

1:16

G|----------------------------------------------------------------|
D|----------------------------------------------------------------|
A|7-----------7---7-----------7---7-----------7-----------6-------|
E|------------------------------------------------9---------------|

G|----------------------------------------------------------------|
D|----------------------------------------------------------------|
A|----------------------------------------------------------------|
E|7-----------7---7-----------7---5---5---5---5---5---5---5-------|

1:24

G|----------------------------------------------------------------|
D|----------------------------------------------------------------|
A|----------------------------------------------------------------|
E|0---0---0---0---0---0---0---0---0---0---0---0---0---0---0---0---|

G|----------------------------------------------------------------|
D|----------------------------------------------------------------|
A|----------------------------------------------------------------|
E|7---7---7---7---7---7---7---7---5---5---5---5---5---5---5---5---|

G|----------------------------------------------------------------|
D|----------------------------------------------------------------|
A|----------------------------------------------------------------|
E|0---0---0---0---0---0---0---0---0---0---0---0---0---0---0---0---|

G|----------------------------------------------------------------|
D|----------------------------------------------------------------|
A|----------------------------------------------------------------|
E|7---7---7---7---7---7---7-------5---5---5---5---5---5---5---5---|

G|----------------------------------------------------------------|
D|----------------------------------------------------------------|
A|7---7---7---7---7---7---7---7---7-----------------------9-----/-|
E|------------------------------------------------7---------------|

1:43

G|----------------------------------------------------------------|
D|------------9---------------9-----------------------------------|
A|11--------------11--------------11--------------7-------9-------|
E|----------------------------------------------------------------|

G|----------------------------------------------------------------|
D|--------------------------------9-------------------------------|
A|------------9---------------9---------------------------9-----/-|
E|7---------------7-------------------------------7---------------|

G|----------------------------------------------------------------|
D|------------9---------------9-----------------------------------|
A|11--------------11--------------11----------7---7-------9-------|
E|----------------------------------------------------------------|

G|----------------------------------------------------------------|
D|----------------------------------------------------------------|
A|------------9---------------9-----------------------------------|
E|7---------------7---------------7---------------7-------5-------|

1:59

G|----------------------------------------------------------------|
D|----------------------------------------------------------------|
A|7---------------------------------------------------------------|
E|----------------------------------------------------------------|

G|----------------------------------------------------------------|
D|----------------------------------------------------------------|
A|----------------------------------------------------------------|
E|7-------------------------------5---5---5---5---5---5---5-------|

2:07

G|----------------------------------------------------------------|
D|----------------------------------------------------------------|
A|----------------------------------------------------------------|
E|0---0---0---0---0---0---0---0---0---0---0---0---0---0---0-------|

G|----------------------------------------------------------------|
D|----------------------------------------------------------------|
A|----------------------------------------------------------------|
E|7---7---7---7---7---7---7-------5---5---5---5---5---5---5-------|

G|----------------------------------------------------------------|.
D|----------------------------------------------------------------|.
A|----------------------------------------------------------------|.
E|0---0---0---0---0---0---0---0---0---0---0---0---0---0---0---0---|.
                                                                   . x3
G|----------------------------------------------------------------|.
D|----------------------------------------------------------------|.
A|----------------------------------------------------------------|.
E|7---7---7---7---7---7---7---7---5---5---5---5---5---5---5---5---|.

G|----------------------------------------------------------------|
D|----------------------------------------------------------------|
A|7---7---7---7---7---7---7---7---7-----------------------9-----/-|
E|------------------------------------------------7---------------|

G|--------------------------------|
D|--------------------------------|
A|11------------------------------|

Almost there ...

Sign in to get your own page with links to favourite songs and more. You are just one click away...

Login with Facebook Login with Google