Log in

One click and you are in

Login with Facebook Login with Google

Why sign up and log in

Guitar Tabs Explorer
The Magic Gang guitar tabs for How can i compete

Guitar tabs

Tuning: Standard (E A D G B E)


Solo:

e|--4—6b8--4----------------------------------------------|
B|-------------------------9p7----------------------------|
G|-----------------6/8----------8p6-------------6/8-------|
D|---------------------------------------9p6--------------|
A|----------------------------------------------9---------|
E|--------------------------------------------------------|

e|--------------------------------------------------------|
B|-----------------------------------------9b11b9---------|
G|-----------------------------8b11b8---------------------|
D|---------6b9—9~--9/8------------------------------------|
A|--9--9--------------------------------------------------|
E|--------------------------------------------------------|


************************************

| b  Bend
| p  Pull-off
| /  Slide up
| ~  Vibrato

************************************

Almost there ...

Sign in to get your own page with links to favourite songs and more. You are just one click away...

Login with Facebook Login with Google