Log in

One click and you are in

Login with Facebook Login with Google

Why sign up and log in

Guitar Tabs Explorer
The Magic Gang bass tabs for How can i compete

How Can I Compete bass tab by The Magic Gang

The Magic Gang bass tabs for How can i compete

Bass tabs

Tuning: Standard (E A D G)


Verse:
Part A
G|---------------------------------------------------------------------------|
D|-------------6-4-------------6-4-------------6-4---------------------------|
A|---------4-4-------------4-4-------------4-4-------------4-4-4-5-6---------|
E|-7-7-4-7---------7-7-4-7---------7-7-4-7---------7-7-4-7-------------------|

Part B
G|---------------------------------------------------------------------------|
D|---------------------------------------------------------------------------|
A|-6---------------4---------------6---------------4-------------------------|
E|---------------------------------------------------------------------------|

G|---------------------------------------------------------------------------|
D|-------------6-4-------------6-4-------------6-4---------------------------|
A|---------4-4-------------4-4-------------4-4-------------4-4-4-5-6---------|
E|-7-7-4-7---------7-7-4-7---------7-7-4-7---------7-7-4-7-------------------|

G|---------------------------------------------------------------------------|
D|---------------------------------------------------------------------------|
A|-6---------------4---------------6---------------0-0-0-0-0-0-0-------------|
E|---------------------------------------------------------------------------|


Chorus:

G|---------------------------------------------------------------------------|
D|---------------------------------------------------------------------------|
A|-----------------4-4-4-4-4-4-4-4-2-2-2-2-2-2-2-2---------------------------| x2
E|-0-0-0-0-0-0-0-0---------------------------------2-2-2-2-2-2-2-2-----------|

G|---------------------------------------------------------------------------|
D|---------------------------------------------------------------------------|
A|---------------------------------------------------------------------------|
E|---------------------------------------------------------------------------|


Verse:

Part A
G|---------------------------------------------------------------------------|
D|-------------6-4-------------6-4-------------6-4---------------------------|
A|---------4-4-------------4-4-------------4-4-------------4-4-4-5-6---------|
E|-7-7-4-7---------7-7-4-7---------7-7-4-7---------7-7-4-7-------------------|

Part B
G|---------------------------------------------------------------------------|
D|-----8-8-6-6-4-4-----6-6-4-4-2-2-----8-8-6-6-4-4---------------------------|
A|-6-6-------------4-4-------------6-6-------------0-0-0-0-0-0-0-0-----------|
E|---------------------------------------------------------------------------|


Chorus:

G|---------------------------------------------------------------------------|
D|---------------------------------------------------------------------------|
A|-----------------4-4-4-4-4-4-4-4-2-2-2-2-2-2-2-2---------------------------| x2
E|-0-0-0-0-0-0-0-0---------------------------------2-2-2-2-2-2-2-2-----------|


Bridge:
G|----------------------------------------------------------------------------|
D|-----8-8-6-6-----------6-6-4-4-2-2------8-8-6-6-----------------------------|
A|-6-6---------2h5p2-4-4--------------6-6---------------4-4-4-5-6-------------|
E|------------------------------------------------1h3p1-----------------------|


Chorus:
G|---------------------------------------------------------------------------|
D|---------------------------------------------------------------------------|
A|-----------------4-4-4-4-4-4-4-4-2-2-2-2-2-2-2-2---------------------------| x2
E|-0-0-0-0-0-0-0-0---------------------------------2-2-2-2-2-2-2-2-----------|


Outro:

G|---------------------------------------------------------------------------|
D|---------------------------------------------------------------------------|
A|-----------------4-4-4-4-4-4-4-4-2-2-2-2-2-2-2-2---------------------------| x2
E|-0-0-0-0-0-0-0-0---------------------------------2-2-2-2-2-2-2-2-----------|


************************************

| h  Hammer-on
| p  Pull-off

************************************

Almost there ...

Sign in to get your own page with links to favourite songs and more. You are just one click away...

Login with Facebook Login with Google