Log in

One click and you are in

Login with Facebook Login with Google

Why sign up and log in

Guitar Tabs Explorer
The Magic Gang guitar tabs for Alright

Solo tabs

Tuning: Standard (E A D G B E)

Key: A chord diagramAbAb

Difficulty: Intermediate

This solo is  split into 4 sections. Sounds best if you slide up to the first note of each section.
Solo:

e|--------------------------------------------------------13-13-13-13-9-9-9-9-11-11-11-13-------------|
B|--11-12-13-13-13-13---------------------------------------------------------------------11-11-11-12-|
G|--------------------12-12-12-12-13-13-13-13-10-10-10-10---------------------------------------------|
D|----------------------------------------------------------------------------------------------------|
A|----------------------------------------------------------------------------------------------------|
E|----------------------------------------------------------------------------------------------------|

e|----------------------------------------------------------------------------------------------------|
B|-13-13-13-13-------------------------------------------------13-------------------------------------|
G|-------------12-12-12-12-13-13-13-13-10-10-10----------10----------10----8-10-8-10-10-8-8b10--------|
D|----------------------------------------------13-11-11----11----11----11----------------------------|
A|----------------------------------------------------------------------------------------------------|
E|----------------------------------------------------------------------------------------------------|

e|----------------------------------------------------------------------------------------------------|
B|----------------------------------------------------------------------------------------------------|
G|-------------------------10-10-10-10-12-12-12-12-------------------------15-15-------17-17-17-17----|
D|-10-10-10-10-13-13-13-13-------------------------11-11-11-11-15-15-15-15-------17-17----------------|
A|----------------------------------------------------------------------------------------------------|
E|----------------------------------------------------------------------------------------------------|

e|----------------------------------------------------------------------------------------4-----------|
B|----------------------------------------------------------------------------------------4-----------|
G|-------------------------10-10-10-10-12-12-12-12----------------------------------------5-----------|
D|-10-10-10-10-13-13-13-13-------------------------11-11-11-11-10-------------8----8b10---6-----------|
A|----------------------------------------------------------------13-11-8---8---10--------6-----------|
E|------------------------------------------------------------------------9---------------4-----------|


************************************

| b  Bend

************************************

Almost there ...

Sign in to get your own page with links to favourite songs and more. You are just one click away...

Login with Facebook Login with Google