Log in

One click and you are in

Login with Facebook Login with Google

Why sign up and log in

Guitar Tabs Explorer
The Magic Gang bass tabs for All that i want is you

All That I Want Is You bass tab by The Magic Gang

The Magic Gang bass tabs for All that i want is you

Bass tabs

Tuning: Standard (E A D G)

Key: B

Difficulty: Novice
Intro:

   1 +  2 + 3  +  4  + | 1 + 2 + 3 + 4 + | 1 +  2 + 3  +  4  + | 1 + 2 + 3 + 4 +
G|---------------------|-----------------|---------------------|-----------------|
D|---11-----9----------|-***-------------|---11-----9----------|-***-------------|
A|---------------------|-----------------|----------------5~---|-----------------|
E|-9------7------5~----|-----------------|-9------7------------|-----------------| (x2)


Verse:

"Come into your hotel room..."

   1 + 2 + 3   + 4  +  | 1 + 2 +  3   + 4  +
G|---------------------|--------------------------|
D|--------9h11-9-11----|--------------9-----------|
A|------------------9--|-------9-9h11---11-9------|
E|-7-------------------|--------------------------|

   1 + 2 + 3  + 4  +  | 1 +  2  +  3  +  4  +
G|--------------------|---------------------------|
D|--------------------|---------------------------|
A|---------11-9-------|---------------------------|
E|-9------------11-12-|---12-12-12-12-12-12-12----| (x2)


Bridge:
                      "Oh Brian, won't you come out.."

   1 + 2 + 3  + 4  + | 1 + 2 + 3 + 4 + |
G|-------------------|-----------------|
D|---9-----11--------|---------9-9-9-9-|
A|-------------------|-----------------|
E|-7-----9-----5~----|-------5---------| (x3)

   1 + 2 + 3  + 4  + | 1 + 2 + 3 + 4 + |
G|-------------------|-----------------|
D|---9-----11--------|-***-------------|
A|--------------5~---|-----------------|
E|-7-----9-----------|-----------------|


Verse:

"Tell me what it's like..."

   1 + 2 + 3   + 4  +  | 1 + 2 +  3   + 4  +
G|---------------------|--------------------------|
D|--------9h11-9-11----|--------------9-----------|
A|------------------9--|-------9-9h11---11-9------|
E|-7-------------------|--------------------------|

   1 + 2 + 3  + 4  +  | 1 +  2  +  3  +  4  +
G|--------------------|---------------------------|
D|--------------------|---------------------------|
A|---------11-9-------|---------------------------|
E|-9------------11-12-|---12-12-12-12-12-12-12----| (x2)


Bridge:
                      "Oh Brian, won't you come out.."

   1 + 2 + 3  + 4  + | 1 + 2 + 3 + 4 + |
G|-------------------|-----------------|
D|---9-----11--------|---------9-9-9-9-|
A|-------------------|-----------------|
E|-7-----9-----5~---|-------5---------| (x3)

   1 + 2 + 3  + 4 + | 1 + 2 + 3 + 4 + |
G|------------------|-----------------|
D|---9-----11---7---|-----7-------7---|
A|------------------|-----------------|
E|-7-----9----------|-----------------|


Chorus:

"You're trying to save me..."

   1 + 2 + 3 + 4 + | 1 + 2 + 3 + 4 + | 1 + 2 + 3 + 4 + | 1 + 2 + 3 + 4 + |
G|-----------------|-----------------|-----6-----------|-----------------|
D|-----------------|-----------------|-----------6-----|-----------------|
A|-7-7-7-7-7-7-7-7-|-----------------|-----------------|-----------------|
E|-----------------|-7-7-7-7-7-7-7-7-|-9-9---7-7---5---|---5-5-5-5-5-5-5-| (x2)

   1 + 2 + 3 + 4 + | 1 + 2 + 3 + 4 + |
G|-----6-----------|-----------------|
D|-----------6-----|-***-------------|
A|-------------5---|-----------------|
E|-9-9---7-7-------|-----------------|


Solo:

   1 + 2 + 3   + 4  +  | 1 + 2 +  3   + 4  +
G|---------------------|--------------------------|
D|--------9h11-9-11----|--------------9-----------|
A|------------------9--|-------9-9h11---11-9------|
E|-7-------------------|--------------------------|

   1 + 2 + 3  + 4  +  | 1 +  2  +  3  +  4  +
G|--------------------|---------------------------|
D|--------------------|---------------------------|
A|---------11-9-------|---------------------------|
E|-9------------11-12-|---12-12-12-12-12-12-12----| (x2)


Bridge:
                      "Oh Brian, won't you come out.."

   1 + 2 + 3  + 4  + | 1 + 2 + 3 + 4 + |
G|-------------------|-----------------|
D|---9-----11--------|---------9-9-9-9-|
A|-------------------|-----------------|
E|-7-----9-----5~----|-------5---------| (x3)

   1 + 2 + 3  + 4 + | 1 + 2 + 3 + 4 + |
G|------------------|-----------------|
D|---9-----11---7---|-----7---7-7-7-7-|
A|------------------|-----------------|
E|-7-----9----------|-----------------|


Chorus:

"You're trying to save me..."

   1 + 2 + 3 + 4 + | 1 + 2 + 3 + 4 + | 1 + 2 + 3 + 4 + | 1 + 2 + 3 + 4 + |
G|-----------------|-----------------|-----6-----------|-----------------|
D|-----------------|-----------------|-----------6-----|-----------------|
A|-7-7-7-7-7-7-7-7-|-----------------|-----------------|-----------------|
E|-----------------|-7-7-7-7-7-7-7-7-|-9-9---7-7---5---|---5-5-5-5-5-5-5-| (x2)

   1 + 2 + 3 + 4 + |
G|-----6-----------|
D|-----------6-----|
A|-------------5-5-|
E|-9-9---7-7-------|

   1 + 2 + 3 + 4 +
G|-----------------|
D|-----------------|
A|-5-5-5-5-5-5-5-5-|
E|-----------------| (x4)


Outro:

   1 + 2 + 3 + 4 + | 1 + 2 + 3 + 4 + |
G|-----------------|-----------------|
D|-----------------|-----------------|
A|-----------------|-----------------|
E|-9-9-9-7-7-7-5-5-|-5-5-5-5-5-5-5-5-| (x4)

   1 +  2 + 3  +  4  + |
G|---------------------|
D|---11-----9----------|
A|---------------------|
E|-9------7------5~----|


************************************

| ~  Let ring
| *** Rest
| h  Hammer-on

************************************

Almost there ...

Sign in to get your own page with links to favourite songs and more. You are just one click away...

Login with Facebook Login with Google