Log in

One click and you are in

Login with Facebook Login with Google

Why sign up and log in

Guitar Tabs Explorer
Magic Dirt tabs for Girl boy

Guitar tabs with lyrics

Artist : Magic Dirt
Track  : Girl Boy
Album  : Tough Love
Tab By : Andy Brady(bluesexplosionman@hotmail.com)

Most of the song is played with distortion

    Makes me feel cool when I say your name
[0:00] Guit 1 (crd)
e ---------------------
A chord diagramBB -----------------4-4-
A chord diagramG+G --1-1--1-1--3-3--4-4-
A chord diagramD MajorD --2-2--2-2--4-4--4-4-
A chord diagramA augmentedA --2-2--2-2--4-4--2-2-
A chord diagramE MajorE --0-0--0-0--2-2------

[0:14] Guit 2 (tab)                                                 * -
may be muted
    Watch me now as I.....
e
-------------------------------------------------------------------------
A chord diagramBB
--7-7-7-7-7-7-7-7-7-7-7-7-7-7-7-777-7-7-7-7-7-7-7-7-7-7-7-5/4-4-4-5-4----
A chord diagramG+G
----------------------------------------------------------------------4-4
A chord diagramD MajorD
-------------------------------------------------------------------------
A chord diagramA augmentedA
-------------------------------------------------------------------------
A chord diagramE MajorE
-------------------------------------------------------------------------
    Makes me feel cool....
e
---------------------------------------------------------------------------
A chord diagramBB
--7-7-7-7-7-7-7-7-7-7-7-7-7-7-7-777-7-7-7-7-7-7-7-7-7-7-5-4h5-4h5-4hp5-----
A chord diagramG+G
-----------------------------------------------------------------------4-4-
A chord diagramD MajorD
---------------------------------------------------------------------------
A chord diagramA augmentedA
---------------------------------------------------------------------------
A chord diagramE MajorE
---------------------------------------------------------------------------

[0:42] Chorus (guitars)
    Baby when you're in the same room as me
e --0---2---2---2-
A chord diagramBB --0---2---4---2-
A chord diagramG+G --1---3---4---3-
A chord diagramD MajorD --2---4---4---4-  x 2
A chord diagramA augmentedA --2---4---2---4-
A chord diagramE MajorE --0---2-------2-
    It's no tricks.....
e --0---2---4---2-
A chord diagramBB --0---2---6---2-
A chord diagramG+G --1---3---6---3-
A chord diagramD MajorD --2---4---6---4-
A chord diagramA augmentedA --2---4---4---4-
A chord diagramE MajorE --0---2-------2-

[1:03] Guit 1
e -----------------------------------------------------
A chord diagramBB -----------------------------------------------------
A chord diagramG+G --9-9-9--11-11-------*-*--9-9-9--11-11-------*-*-*-*-
A chord diagramD MajorD --9-9-9--11-11--9-9--*-*--9-9-9--11-11--9-9--*-*-*-*-
A chord diagramA augmentedA --7-7-7--9--9---9-9--*-*--7-7-7--9--9---9-9--*-*-*-*-
A chord diagramE MajorE ----------------7-7---------------------7-7----------

[1:24] Guit 1
e ---------------------
A chord diagramBB -----------------4-4-
A chord diagramG+G --1-1--1-1--3-3--4-4-
A chord diagramD MajorD --2-2--2-2--4-4--4-4-  x 4
A chord diagramA augmentedA --2-2--2-2--4-4--2-2-
A chord diagramE MajorE --0-0--0-0--2-2------

Guit 2
e
----------------------------------------------------------------------------
A chord diagramBB
--7-7-7-7-7-7-7-7-7-7-7-7-7-7-7-777-7-7-7-7-7-7-7-7-7-7-5-4h5-4h5-4h5p4-----
A chord diagramG+G
------------------------------------------------------------------------4-4-
A chord diagramD MajorD
----------------------------------------------------------------------------
A chord diagramA augmentedA
----------------------------------------------------------------------------
A chord diagramE MajorE
----------------------------------------------------------------------------

[1:38] Chorus Guit 1
e --0---2---2---2-
A chord diagramBB --0---2---4---2-
A chord diagramG+G --1---3---4---3-
A chord diagramD MajorD --2---4---4---4-  x 2
A chord diagramA augmentedA --2---4---2---4-
A chord diagramE MajorE --0---2-------2-

Guit 2
e --2---2---2---
A chord diagramBB ----4---2---4-
A chord diagramG+G --------------   x4
A chord diagramD MajorD --------------
A chord diagramA augmentedA --------------
A chord diagramE MajorE --------------


[1:52] Guit 1
e --0---2---4---2-
A chord diagramBB --0---2---6---2-
A chord diagramG+G --1---3---6---3-
A chord diagramD MajorD --2---4---6---4-
A chord diagramA augmentedA --2---4---4---4-
A chord diagramE MajorE --0---2-------2-
Guit 2
e ----------------11-
A chord diagramBB ----------------11-
A chord diagramG+G --9---11--------11-
A chord diagramD MajorD --9---11---11---11-
A chord diagramA augmentedA --7---9----11---9--
e -----------9-------

[1:59] Guit 1
    I just can't stand in the same room
e --0------
A chord diagramBB --0------
A chord diagramG+G --1------
A chord diagramD MajorD --2------
A chord diagramA augmentedA --2------
A chord diagramE MajorE --0------

Guit 2
e --2---2---2---
A chord diagramBB ----4---2---2-
A chord diagramG+G --------------   x4
A chord diagramD MajorD --------------
A chord diagramA augmentedA --------------
A chord diagramE MajorE --------------

[2:09] (harmonics)
    Cause you're a girl...

[2:23] Solo                                                        1/2
full
e--------------------------------------------------------------------------------
-
B--------------------------------------------------------------------------------
-
G--8h9-8---8----------8h9-8---8---------8h9-8---8---------8h9-8---8b---8-9b-9-8--
-
D--------9---8h9-8----------9--8h9-8----------9--8h9-8----------9----9----------9
-
A------------------9-----------------9-----------------9-------------------------
-
E--------------------------------------------------------------------------------
-
[2:37] Last chorus
e --0---2---2---2-
A chord diagramBB --0---2---4---2-
A chord diagramG+G --1---3---4---3-
A chord diagramD MajorD --2---4---4---4-
A chord diagramA augmentedA --2---4---2---4-
A chord diagramE MajorE --0---2-------2-

Guit 2
e ---------------------------
A chord diagramBB --12--12----11-12/14-12-11-
A chord diagramG+G --x---x-----x--x--x-----x--
A chord diagramD MajorD --9---9-----8--9/ 11-9--8--
A chord diagramA augmentedA ---------------------------
A chord diagramE MajorE ---------------------------

[2:50] Outro                          fade out
e ---------------------------------------
A chord diagramBB ---------------------------------------
A chord diagramG+G ------------4-x-4-x-4-x-4-x-4-x-4-x-4--
A chord diagramD MajorD --2-2--4-4--4-x-4-x-4-x-4-x-4-x-4-x-4--
A chord diagramA augmentedA --2-2--4-4--2-x-2-x-2-x-2-x-2-x-2-x-2--
A chord diagramE MajorE --0-0--2-2-----------------------------

Almost there ...

Sign in to get your own page with links to favourite songs and more. You are just one click away...

Login with Facebook Login with Google