Log in

One click and you are in

Login with Facebook Login with Google

Why sign up and log in

Guitar Tabs Explorer
Magic Dirt tabs for All my crushes

Guitar tabs

All My Crushes 		Magic Dirt


Intro - guitar 1

Riff 1
E-|------------------------------------------------------------------
B-|------------------------------------------------------------------
G-|--10-10-10-10-10--------------------------------------------------
D-|--10-10-10-10-10------10-10-10-10-10----5-5-5-5-5---5-5-5-5-5-----
A-|--8--8--8---8--8------10-10-10-10-10----5-5-5-5-5---5-5-5-5-5-----
E-|----------------------8---8--8--8--8----3-3-3-3-3---3-3-3-3-3-----
X 2
Then Guitar 2 –  with guitar 1 playing Intro riff quietly

Riff 2
E-|------------------------------------------------------------------
B-|------------------------------------------------------------------
G-|------------------------------------------------------------------
D-|-----15--17--10--12-----------------------------------------------
A-|------------------------------------------------------------------
E-|------------------------------------------------------------------
X3

E-|------------------------------------------------------------------
B-|------------------------------------------------------------------
G-|---------------------------5--------------------------------------
D-|-----15--17--10--12--7-7-----5------------------------------------
A-|------------------------------------------------------------------
E-|------------------------------------------------------------------


Intro   x3

Riff 2  x1

E-|------------------------------------------------------------------
B-|------------------------------------------------------------------
G-|------------------------------------------------------------------
D-|-----15--17--10--12--19171917--12--15--17----15----------------
A-|------------------------------------------------------------------
E-|------------------------------------------------------------------

E-|--17-17-1715-15-15-1310-10---17-1715-10h-----171517h---------
B-|------------------------------------------------------------------
G-|------------------------------------------------------------------
D-|------------------------------------------------------------------
A-|------------------------------------------------------------------
E-|------------------------------------------------------------------


Intro x 3


Riff 3 while intro is still being played quietly now
E-|------------------------------------------------------------------
B-|------------------------------------------------------------------
G-|------------------------------------------------------------------
D-|-----15h----------15-17h
/9------------------------------------------------|
A-|------------------------------------------------------------------
E-|------------------------------------------------------------------

E-|------------------------------------------------------------------
B-|------------------------------------------------------------------
G-|------------------------------------------------------------------
D-|----------4-5----------4-5----------------------------------------
A-|-----8-8---------8-8----------------------------------------------
E-|------------------------------------------------------------------

Then play intro till end.

Almost there ...

Sign in to get your own page with links to favourite songs and more. You are just one click away...

Login with Facebook Login with Google