Log in

One click and you are in

Login with Facebook Login with Google

Why sign up and log in

Guitar Tabs Explorer
Mae bass tabs for The fisherman song we all need love

The Fisherman Song We All Need Love bass tab by Mae

Mae bass tabs for The fisherman song we all need love

Bass tabs

(m)orning
Mae

Enjoy. :)
Credits to: Joe Arsenault

Tuning: Eb Standard
[Eb Ab Db Gb]


Rest until [1:04]

Part 1: Intro to verse

Gb -9-----------------/9-9--------14-13------------------------------|
Db ---9h11p9-7--7h9-6-------------------14---------------------------|
Ab -------------------------12-14----------14-11-12--12h14-11--7-7---|
Eb ------------------------------------------------------------------|


Part 2: Verse

Gb ----------------------------------------/9-9---|
Db ---------6-------6-9-9h11p9---7--7h9-6---------|
Ab -7--6-7----6-7-4------------7------------------|
Eb -----------------------------------------------|

Gb ---------------------------------9-------------|
Db ---------6-------6---9h11p9---7------6---------|
Ab -7--6-7----6-7-4------------7------7----/7-----|
Eb -------------------7-----------------------0---|

Gb ---------------------8h9p8-------------/9-9---|
Db ---------6-------6-9-------9-7----6-----------|
Ab -7--6-7----6-7-4---------------7-----7--------|
Eb ----------------------------------------------|

Gb ---------------------------------------------|
Db ---------6-------6---------------------------|
Ab -7--6-7----6-7-4---------------7-----7-------|
Eb -------------------7-7h9p7-4-5---5-4---0-0---|

Part 3: "Oh I just need some understanding..."

Gb -------------|
Db -------------|
Ab -0---0---0---|
Eb ---0---0-----|


Part 4: "Would you ride with me oh..."

Gb --------------------------------------------|
Db -------------1-2----------------------------|
Ab -2-4-0---2-4-----0---4-2-0----------0-0-0---|
Eb ----------------------------2-2-2-2---------|

Part 5: "His eyes were anchors as the boat would sway..."

Gb ------------------------------------------------------------------------------------|
Db -----------------------------------------------------------------------------(x2)---|
Ab -7-7-7-7-----4-4-4-4-4-4-3-3-3-3-3-3-7-7-7-7-----4-4-4-4-4-4------------------------|
Eb ---------4-4---------------------------------4-4-------------2-2-2-2-2-2-2-2--------|

Gb ---------------------------------------|
Db -------------1-2-----------------------|
Ab -2-4-0---2-4-----0---4-2-0---2---4-6---|
Eb -------------------------------2-------|

Gb -------------------------------------------------------------------------------|
Db -------------------------------------------------------------------------------|
Ab -7-7-7-7-----4-4-4-4-4-4-3-3-3-3-3-3-7-7-7-7-----4-4-4-4-4-4--------/9-9-9-9---|
Eb ---------4-4---------------------------------4-4-------------2-2-2-2-----------|

Gb -------------------------------------------------------------------------------------|
Db ------------------------/10-10-10-10-10-10-------------------------------------------|
Ab -7-7-7-7-----4-4-4-4-4-4-------------------7-7-7-7-----4-4-4-4-4-4-------------------|
Eb ---------4-4---------------------------------------4-4-------------2-2-2-2-2-2-2-2---|

Gb ----------------------------------------|
Db -------------1-2------------------------|
Ab -2-4-0---2-4-----0---4-2-0---2------0---|
Eb -------------------------------2--------|


Part 6: Solo

Gb -------------------------------|
Db --------(x3)---------(x5)------|
Ab -0---4-------0--4--2-------0---|
Eb -------------------------------|


Part 7: Outro [7:01]


Gb -------------------------------------------------------------------------------|
Db -------------------------------------------------------------------------6-----|
Ab ---7-------7-9-7-9/11---7-----------------7-------7-9-7-9/11---7-----------7---|
Eb -0---7-5-7------------0---7-5-5-5-7-4~--0---7-5-7------------0---7-5-5-7-------|

Gb -------------------------------------------------------------------------------|
Db -----------------------------------6-------------------------------------------|
Ab -0--7-------7-9-7-9/11-0-7-----------7-----------------------------------------|
Eb ------7-5-7----------------7-5-5-7------9-9-9-9-9-9-9-9-9-9-9-11-7---5-5-5-7---|

Gb -----------------------------------------------------------------------------------|
Db -----------------------------------------------------------------------------6-----|
Ab ---7-------7--9--7-9/11---7-----------------7-------7-9--7-9/11----7-----------7---|
Eb -0---7-5-7--------------0---7-5-5-5-7-4~--0---7-5-7--------------0---7-5-5-7-------|

Gb -------------------------------------------------------------------------------------|
Db ------------------------------------6------------------------------------------------|
Ab ---7-------7--9--7-9/11---7-----------7------7-------7-9--7-9/11----7----------------|
Eb -0---7-5-7--------------0---7-5-5-7-----7--0---7-5-7--------------0---7-5-5-5-7-4~---|

Gb ----------------------------------------|
Db ----------------------------------------|
Ab ----------------------------------------|
Eb -9-9-9-9-9-9-9-9-9-9-9-11-7---5-5-5-7---|

Gb ----------------------------------------|
Db ---------------------------------(x4)---|
Ab ---7-7---7-7---7---7-7---7---7-7--------|
Eb -0-----0-----0---0-----0---0------------|

Gb ------------------------------------------------------------------------|
Db ---6-6---6-6---4---4-4---4---4-6---6-6---6-6---4---4-4-6-7-6-4---(x2)---|
Ab ---------------------------------------------------------------7--------|

Almost there ...

Sign in to get your own page with links to favourite songs and more. You are just one click away...

Login with Facebook Login with Google