Log in

One click and you are in

Login with Facebook Login with Google

Why sign up and log in

Guitar Tabs Explorer
Madonna tabs for Papa don't preach

Solo tabs

SONG: Papa Don't Preach solo
   ARTIST: Madonna
    ALBUM: True blue
  WEBSITE: www.madonna.com

     TYPE: Guitar Tablature
TABBED BY: Gareth Waterhouse
    EMAIL: Funkinbrooklyn@hotmail.com
 COMMENTS: This is used on an acoustic on track


e:--8-8-11-10-8-----8-8--8-8-11-13-8-8-10-----:
b:--------------9-11----------------------6-6-:
g:--------------------------------------------:

e:-8-8-11-10-8-6-4----------------6-4----------
b:-----------------6-4----------4-----6-3-5----
g:---------------------6-5---------------------

----6-4----------
--4-----6-3-5----
-----------------

Almost there ...

Sign in to get your own page with links to favourite songs and more. You are just one click away...

Login with Facebook Login with Google