Log in

One click and you are in

Login with Facebook Login with Google

Why sign up and log in

Guitar Tabs Explorer
Madonna tabs for One more chance

Guitar tabs

Title: One more chance.
Album: Something to remember.
Year: 1995.


-|--------------------------|-------------1-----|--------------|--------------
-|-----------1-3----1----1--|--------1--1-1--1--|--------------|--------------
-|---0h2--2--2----3----2----|---0h2--1--3----2--|--2-2--2-2-2--|--------------
-|-3------3-------0----3----|-3------3-------3--|--3-3--3-3-3--|--------------
-|--------1--0----x----x----|--------x--x-------|--3-3--3-3-3--|--------------
-|----------------3----1----|--------4--3----1--|--1-1--1-1-1--|--------------
-|--------------------0-------------------------------|-----------------------
-|--------------------1-1-1--------3-----------3------|-----------------------
-|-----0-2----------2----2-------3--3-3------3--3-----|-----------------------
-|---------3-3----3------------3-----3-----3----------|-----------------------
-|---3------3---0------------1-----------1--------0---|-----------------------
-|-1-----------------------------------------------3--|-----------------------


-|--------------------0---------------------------0---|-----------------------
-|--------------------1-1-1--------3-----------1-3----|-----------------------
-|-----0-2----------2----2-------3--3-3------3--------|-----------------------
-|---------3-3----3------------3-----3-----3----------|-----------------------
-|---3------3---0------------1-----------1------------|-----------------------
-|-1--------------------------------------------------|-----------------------


-|-1----1-1----1-----------------|-1---1--1-0---0--|--0----1-----|------------
-|-3---3-----3-3--5---5--6-5--3--|-3--3---3---3----|--1--1-1--1--|------------
-|---2----3-------6--6---7----2--|-3-3-------------|--1--3----2--|------------
-|-0--------0-------5---------0--|-----------------|--3-------3--|------------
-|----------------4------5-------|--------3---3----|--x--x-------|------------
-|--------3----------------------|-3---------------|--4--3----1--|------------

-|---------------|----------------|--------1--------0--|----------------------
-|-3-3-3-3--2-2--|-5---5--6-5--3--|--------1---2-------|----------------------
-|-2-2-2-2--2-2--|-6--6---7----2--|----2--3-3----0h2---|----------------------
-|---------------|---5---------0--|-0-3----------------|----------------------
-|-0-1------0----|-4------5-------|------------0-------|----------------------
-|--------0------|----------------|------3-------------|----------------------


-|-------------------|----------|---------------------------------------------
-|-3-3-3-3-3-3-------|-3-3-3-3--|---------------------------------------------
-|-2-4-4-2-2-2-------|-2-4-4-2--|---------------------------------------------
-|-------0-----------|-------0--|---------------------------------------------
-|---0-0-----0h2-0---|---0-0----|---------------------------------------------
-|-1--------------2--|-1--------|---------------------------------------------

Other versions of One More Chance

One more chanceChords
One more chance (Ver. 2)Tabs

Almost there ...

Sign in to get your own page with links to favourite songs and more. You are just one click away...

Login with Facebook Login with Google