Log in

One click and you are in

Login with Facebook Login with Google

Why sign up and log in

Guitar Tabs Explorer
Madonna bass tabs for Material girl

Bass tabs

Tuning: Standard (E A D G)

♫ Intro:
G|-----------------|-----------------|-----------------|-----------------|
D|-----------------|-----------------|-----------------|-----------------|
A|-3.--3.----3.----|-3.--3.----3.----|-3.--3.----3.----|-3.--3.----3.----|
E|---------3-----3-|---------3-----3-|---------3-----3-|---------3-----3-|
  1 + 2 + 3 + 4 +  1 + 2 + 3 + 4 +  1 + 2 + 3 + 4 +  1 + 2 + 3 + 4 +

G|-----------------|-----------------|-----------------|-----------------|
D|-----------------|-----------------|-----------------|-----------------|
A|-3.--3.----3.----|-3.--3.----3.----|-3.--3.----3.----|-3.--3.----3.----|
E|---------3-----3-|---------3-----3-|---------3-----3-|---------3-----3-|
  1 + 2 + 3 + 4 +  1 + 2 + 3 + 4 +  1 + 2 + 3 + 4 +  1 + 2 + 3 + 4 +

G|-----------------|-----------------|-----------------|-----------------|
D|-----------------|-----------------|-----------------|-----------------|
A|-3.--3.----3.----|-3.--3.----3.----|-3.--3.----3.----|-3.--3.----3.----|
E|---------3-----3-|---------3-----3-|---------3-----3-|---------3-----3-|
  1 + 2 + 3 + 4 +  1 + 2 + 3 + 4 +  1 + 2 + 3 + 4 +  1 + 2 + 3 + 4 +

G|-----------------|-----------------|-----------------|-----------------|
D|-----------------|-----------------|-----------------|-----------------|
A|-3.--3.----3.----|-3.--3.----3.----|-3.--3.----3.----|-3.--3.----3.----|
E|---------3-----3-|---------3-----3-|---------3-----3-|---------3-----3-|
  1 + 2 + 3 + 4 +  1 + 2 + 3 + 4 +  1 + 2 + 3 + 4 +  1 + 2 + 3 + 4 +

♫ Verse 1: "Some boys kiss me..."
G|-----------------|-----------------|-----------------|-----------------|
D|-----------------|-----------------|-----------------|-----------------|
A|-3.--3.----3.----|-3.--3.----3.----|-1.--1.----1.----|-----------------|
E|---------3-----3-|---------3-----1-|---------1-----0-|-5.--5.--0-5.--3-|
  1 + 2 + 3 + 4 +  1 + 2 + 3 + 4 +  1 + 2 + 3 + 4 +  1 + 2 + 3 + 4 +

G|-----------------|-----------------|-----------------|-----------------|
D|-----------------|-----------------|-----------5.----|-----------------|
A|-3.--3.----3.----|-3.--3.----3.--3-|-5.--5.----------|-3.--3.----3.----|
E|---------3-----3-|---------3-------|---------3-----3-|---------3-----3-|
  1 + 2 + 3 + 4 +  1 + 2 + 3 + 4 +  1 + 2 + 3 + 4 +  1 + 2 + 3 + 4 +

G|-----------------|-----------------|-----------------|-----------------|
D|-----------------|-----------------|-----------------|-----------------|
A|-3.--3.----3.----|-3.--3.----3.----|-1.--1.----1.----|-----------------|
E|---------3-----3-|---------3-----1-|---------1-----0-|-5.--5.--0-5.--3-|
  1 + 2 + 3 + 4 +  1 + 2 + 3 + 4 +  1 + 2 + 3 + 4 +  1 + 2 + 3 + 4 +

G|-----------------|-----------------|-----------------|-----------------|
D|-----------------|-----------------|-----------5.----|-----------------|
A|-3.--3.----3.----|-3.--3.----3.--3-|-5.--5.----------|-3.--3.----3.----|
E|---------3-----3-|---------3-------|---------3-----3-|---------3-----3-|
  1 + 2 + 3 + 4 +  1 + 2 + 3 + 4 +  1 + 2 + 3 + 4 +  1 + 2 + 3 + 4 +

♫ Chorus 1: "Cause we are living..."
G|-----------------|-----------------|-----------------|-----------------|
D|-----------5.----|-----------7---5-|-----------5.----|-----------7-5---|
A|-----------------|-----------------|-----------------|-----------------|
E|-1.--1-0-3-----3-|-3.--3-0-5---3---|-1.--1-0-3-----3-|-5.--5-0-5-----3-|
  1 + 2 + 3 + 4 +  1 + 2 + 3 + 4 +  1 + 2 + 3 + 4 +  1 + 2 + 3 + 4 +

G|-----------------|-----------------|-----------------|
D|-----------5.----|-----------7---5-|-----------5.----|
A|-----------------|-----------------|-----------------|
E|-1.--1-0-3-----3-|-3.--3-0-5---3---|-1.--1-0-3-----3-|
  1 + 2 + 3 + 4 +  1 + 2 + 3 + 4 +  1 + 2 + 3 + 4 +

♫ Interlude:
G|-----------------|-----------------|-----------------|-----------------|
D|-----------------|-----------------|-----------------|-----------------|
A|-3.--3.----3.----|-3.--3.----3.----|-3.--3.----3.----|-3.--3.----3.----|
E|---------3-----3-|---------3-----3-|---------3-----3-|---------3-----3-|
  1 + 2 + 3 + 4 +  1 + 2 + 3 + 4 +  1 + 2 + 3 + 4 +  1 + 2 + 3 + 4 +

♫ Verse 2: "Some boys romance..."
G|-----------------|-----------------|-----------------|-----------------|
D|-----------------|-----------------|-----------------|-----------------|
A|-3.--3.----3.----|-3.--3.----3.----|-1.--1.----1.----|-----------------|
E|---------3-----3-|---------3-----1-|---------1-----0-|-5.--5.--0-5.--3-|
  1 + 2 + 3 + 4 +  1 + 2 + 3 + 4 +  1 + 2 + 3 + 4 +  1 + 2 + 3 + 4 +

G|-----------------|-----------------|-----------------|-----------------|
D|-----------------|-----------------|-----------5.----|-----------------|
A|-3.--3.----3.----|-3.--3.----3.--3-|-5.--5.----------|-3.--3.----3.----|
E|---------3-----3-|---------3-------|---------3-----3-|---------3-----3-|
  1 + 2 + 3 + 4 +  1 + 2 + 3 + 4 +  1 + 2 + 3 + 4 +  1 + 2 + 3 + 4 +

G|-----------------|-----------------|-----------------|-----------------|
D|-----------------|-----------------|-----------------|-----------------|
A|-3.--3.----3.----|-3.--3.----3.----|-1.--1.----1.----|-----------------|
E|---------3-----3-|---------3-----1-|---------1-----0-|-5.--5.--0-5.--3-|
  1 + 2 + 3 + 4 +  1 + 2 + 3 + 4 +  1 + 2 + 3 + 4 +  1 + 2 + 3 + 4 +

G|-----------------|-----------------|-----------------|-----------------|
D|-----------------|-----------------|-----------5.----|-----------------|
A|-3.--3.----3.----|-3.--3.----3.--3-|-5.--5.----------|-3.--3.----3-----|
E|---------3-----3-|---------3-------|---------3-----3-|---------3---3-0-|
  1 + 2 + 3 + 4 +  1 + 2 + 3 + 4 +  1 + 2 + 3 + 4 +  1 + 2 + 3 + 4 +

♫ Chorus 2: "Cause we are living..."
G|-----------------|-----------------|-----------------|-----------------|
D|-----------5.----|-----------7---5-|-----------5.----|-----------7-5---|
A|-----------------|-----------------|-----------------|-----------------|
E|-1.--1-0-3-----3-|-3.--3-0-5---3---|-1.--1-0-3-----3-|-5.--5-0-5-----3-|
  1 + 2 + 3 + 4 +  1 + 2 + 3 + 4 +  1 + 2 + 3 + 4 +  1 + 2 + 3 + 4 +

G|-----------------|-----------------|-----------------|-----------------|
D|-----------5.----|---5-------7---5-|-----------5.----|-----------------|
A|-----------------|-----------------|-----------------|-3.--3.----3.----|
E|-1.--1-0-3-----3-|-3---3-0-5---3---|-1.--1-0-3-----3-|---------3-----0-|
  1 + 2 + 3 + 4 +  1 + 2 + 3 + 4 +  1 + 2 + 3 + 4 +  1 + 2 + 3 + 4 +

G|-----------------|-----------------|-----------------|-----------------|
D|-----------5.----|---5-------7---5-|-----------5.----|---7-------7-5---|
A|-----------------|-----------------|-----------------|-----------------|
E|-1.--1-0-3-----3-|-3---3-0-5---3---|-1.--1-0-3-----3-|-5---5-0-5-----3-|
  1 + 2 + 3 + 4 +  1 + 2 + 3 + 4 +  1 + 2 + 3 + 4 +  1 + 2 + 3 + 4 +

G|-----------------|-----------------|-----------------|
D|-----------5.----|-----------7---5-|-----------5.----|
A|-----------------|-----------------|-----------------|
E|-1.--1-0-3-----3-|-3.--3-0-5---3---|-1.--1-0-3-----3-|
  1 + 2 + 3 + 4 +  1 + 2 + 3 + 4 +  1 + 2 + 3 + 4 +

♫ Interlude:
G|-----------------|-----------------|-----------------|-----------------|
D|-----------------|-----------------|-----------------|-----------------|
A|-3.--3.----3.----|-3.--3.----3.----|-3.--3.----3.----|-3.--3.----3.----|
E|---------3-----3-|---------3-----3-|---------3-----3-|---------3-----3-|
  1 + 2 + 3 + 4 +  1 + 2 + 3 + 4 +  1 + 2 + 3 + 4 +  1 + 2 + 3 + 4 +

G|-----------------|-----------------|-----------------|-----------------|
D|-----------------|-----------------|-----------------|-----------------|
A|-3.--3.----3.----|-3.--3.----3.----|-3.--3.----3.----|-3.--3.----3.----|
E|---------3-----3-|---------3-----3-|---------3-----3-|---------3-----3-|
  1 + 2 + 3 + 4 +  1 + 2 + 3 + 4 +  1 + 2 + 3 + 4 +  1 + 2 + 3 + 4 +

Li-ving in a material world...:
G|-----------------|-----------------|-----------------|-----------------|
D|-----------------|-----------------|-----------------|-----------------|
A|-3.--3.----3.----|-3.--3.----3.----|-1.--1.----1.----|-----------------|
E|---------3-----3-|---------3-----1-|---------1-----0-|-5.--5.--0-5.--3-|
  1 + 2 + 3 + 4 +  1 + 2 + 3 + 4 +  1 + 2 + 3 + 4 +  1 + 2 + 3 + 4 +

G|-----------------|-----------------|-----------------|-----------------|
D|-----------------|-----------------|-----------5.----|-----------------|
A|-3.--3.----3.----|-3.--3.----3.--3-|-5.--5.----------|-3.--3.----3-7\--|
E|---------3-----3-|---------3-------|---------3-----3-|---------3-------|
  1 + 2 + 3 + 4 +  1 + 2 + 3 + 4 +  1 + 2 + 3 + 4 +  1 + 2 + 3 + 4 +

♫ Verse 3: "Boys may come..."
G|-----------------|-----------------|-----------------|-----------------|
D|-----------------|-----------------|-----------------|-----------------|
A|-3.--3.----3.----|-3.--3.----3.----|-1.--1.----1.----|-----------------|
E|---------3-----3-|---------3-----1-|---------1-----0-|-5.--5.--0-5.--3-|
  1 + 2 + 3 + 4 +  1 + 2 + 3 + 4 +  1 + 2 + 3 + 4 +  1 + 2 + 3 + 4 +

G|-----------------|-----------------|-----------------|-----------------|
D|-----------------|-----------------|-----------5.----|---------5---2---|
A|-3.--3.----3.----|-3.--3.----3.--3-|-5.--5.----------|-3.--3.----3-----|
E|---------3-----3-|---------3-------|---------3-----3-|---------------0-|
  1 + 2 + 3 + 4 +  1 + 2 + 3 + 4 +  1 + 2 + 3 + 4 +  1 + 2 + 3 + 4 +

♫ Chorus 3: "Cause we are living..."
G|-----------------|-----------------|-----------------|-----------------|
D|-----------5.----|---5-------7---5-|-----------5.----|-----------7-5---|
A|-----------------|-----------------|-----------------|-----------------|
E|-1.--1-0-3-----3-|-3---3-0-5---3---|-1.--1-0-3-----3-|-5.--5-0-5-----3-|
  1 + 2 + 3 + 4 +  1 + 2 + 3 + 4 +  1 + 2 + 3 + 4 +  1 + 2 + 3 + 4 +

G|-----------------|-----------------|-----------------|-----------------|
D|-----------5.----|---5-------7---5-|-----------5.----|-----------------|
A|-----------------|-----------------|-----------------|-3.--3.----3.----|
E|-1.--1-0-3-----3-|-3---3-0-5---3---|-1.--1-0-3-----3-|---------3-----0-|
  1 + 2 + 3 + 4 +  1 + 2 + 3 + 4 +  1 + 2 + 3 + 4 +  1 + 2 + 3 + 4 +

G|-----------------|-----------------|-----------------|-----------------|
D|-----------5.----|---5-------7---5-|-----------5.----|-----------7-5---|
A|-----------------|-----------------|-----------------|-----------------|
E|-1.--1-0-3-----3-|-3---3-0-5---3---|-1.--1-0-3-----3-|-5.--5-0-5-----3-|
  1 + 2 + 3 + 4 +  1 + 2 + 3 + 4 +  1 + 2 + 3 + 4 +  1 + 2 + 3 + 4 +

G|-----------------|-----------------|-----------------|
D|-----------5.----|---5-------7---5-|-----------5.----|
A|-----------------|-----------------|-----------------|
E|-1.--1-0-3-----3-|-3---3-0-5---3---|-1.--1-0-3-----3-|
  1 + 2 + 3 + 4 +  1 + 2 + 3 + 4 +  1 + 2 + 3 + 4 +

♫ Interlude:
G|-----------------|-----------------|-----------------|
D|-----------------|-----------------|-----------------|
A|-3.--3.----3.----|-3.--3.----3.----|-3.--3.----3.----|
E|---------3-----3-|---------3-----3-|---------3-----3-|
  1 + 2 + 3 + 4 +  1 + 2 + 3 + 4 +  1 + 2 + 3 + 4 +

♫ Outro: "A material..."
G|-----------------|-----------------|-----------------|-----------------|
D|-----------------|-----------------|-----------------|-----------------|
A|-3.--------------|-----------------|-----------------|-----------------|
E|-----------------|-----------------|-----------------|-----------------|
  1 + 2 + 3 + 4 +  1 + 2 + 3 + 4 +  1 + 2 + 3 + 4 +  1 + 2 + 3 + 4 +

G|-----------------|-----------------|-----------------|-----------------|
D|-----------------|-----------------|-----------------|-----------------|
A|-3.--3.----3.----|-3.--3.----3.----|-1.--1.----1.----|-----------------|
E|---------3-----3-|---------3-----1-|---------1-----0-|-5.--5.--0-5.--3-|
  1 + 2 + 3 + 4 +  1 + 2 + 3 + 4 +  1 + 2 + 3 + 4 +  1 + 2 + 3 + 4 +

G|-----------------|-----------------|-----------------|-----------------|
D|-----------------|-----------------|---------5-------|-----------------|
A|-3.--3.----3.----|-3.--3.----3.--3-|-5.--5.----------|-3.--3.----3-----|
E|---------3-----3-|---------3-------|-----------3.--3-|---------3-----3-|
  1 + 2 + 3 + 4 +  1 + 2 + 3 + 4 +  1 + 2 + 3 + 4 +  1 + 2 + 3 + 4 +

G|-----------------|-----------------|-----------------|-----------------|
D|-----------------|-----------------|-----------------|-----------------|
A|-3.--3.----3.----|-3.--3.----3.----|-1.--1.----1.----|-----------------| (Fade out)
E|---------3-----3-|---------3-----1-|---------1-----0-|-5.--5.--0-5.--3-|
  1 + 2 + 3 + 4 +  1 + 2 + 3 + 4 +  1 + 2 + 3 + 4 +  1 + 2 + 3 + 4 +


**************************************

| \ Slide down
| . Staccato

**************************************

Almost there ...

Sign in to get your own page with links to favourite songs and more. You are just one click away...

Login with Facebook Login with Google