Log in

One click and you are in

Login with Facebook Login with Google

Why sign up and log in

Guitar Tabs Explorer
Madonna bass tabs for Holiday

Bass tabs

4/4

G|--------------------------------|
D|--------------------------------|
A|------------------------2-------|
E|--------------------------------|
Intro:
G|--------------------------------|--------------------------------|
D|--------------------------------|--------------------------0-----|
A|------------0---------------0-0-|0-----0-----2-------2-2-2---2-0-|
E|3-----3-------------------------|--------------------------------|

G|--------------------------------|--------------------------------|
D|--------------------------------|--------------------------------|
A|------------0---------------0---|----------------------------0---| (x12)
E|3-----3-----------------------3-|2-----2-----3-------------------|


Verse:
G|--------------------------------|--------------------------------|
D|--------------------------------|--------------------------0-----|
A|------------0---------------0-0-|0-----0-----2-------2-2-2---2-0-|
E|3-----3-------------------------|--------------------------------|

G|--------------------------------|--------------------------------|
D|--------------------------------|--------------------------------|
A|------------0---------------0---|----------------------------0---| (x8)
E|3-----3-----------------------3-|2-----2-----3-------------------|


Pre-Chorus:
G|--------------------------------|--------------------------------|
D|--------------------------------|--------------------------0-----|
A|------------0---------------0-0-|0-----0-----2-------2-2-2---2-0-|
E|3-----3-------------------------|--------------------------------|

G|--------------------------------|--------------------------------|
D|--------------------------------|--------------------------------|
A|------------0---------------0---|----------------------------0---| (x2)
E|3-----3-----------------------3-|2-----2-----3-------------------|

Chorus:
G|--------------------------------|--------------------------------|
D|--------------------------------|--------------------------0-----|
A|------------0---------------0-0-|0-----0-----2-------2-2-2---2-0-|
E|3-----3-------------------------|--------------------------------|


G|--------------------------------|--------------------------------|
D|--------------------------------|--------------------------------|
A|------------0---------------0---|----------------------------0---| (x8)
E|3-----3-----------------------3-|2-----2-----3-------------------|


Instrumental:
G|--------------------------------|--------------------------------|
D|--------------------------------|--------------------------0-----|
A|------------0---------------0-0-|0-----0-----2-------2-2-2---2-0-|
E|3-----3-------------------------|--------------------------------|

G|--------------------------------|--------------------------------|
D|--------------------------------|--------------------------------|
A|------------0---------------0---|----------------------------0---| (x2)
E|3-----3-----------------------3-|2-----2-----3-------------------|


Verse:
G|--------------------------------|--------------------------------|
D|--------------------------------|--------------------------0-----|
A|------------0---------------0-0-|0-----0-----2-------2-2-2---2-0-|
E|3-----3-------------------------|--------------------------------|

G|--------------------------------|--------------------------------|
D|--------------------------------|--------------------------------|
A|------------0---------------0---|----------------------------0---| (x8)
E|3-----3-----------------------3-|2-----2-----3-------------------|


Pre-Chorus:
G|--------------------------------|--------------------------------|
D|--------------------------------|--------------------------0-----|
A|------------0---------------0-0-|0-----0-----2-------2-2-2---2-0-|
E|3-----3-------------------------|--------------------------------|

G|--------------------------------|--------------------------------|
D|--------------------------------|--------------------------------|
A|------------0---------------0---|----------------------------0---| (x2)
E|3-----3-----------------------3-|2-----2-----3-------------------|


Chorus:
G|--------------------------------|--------------------------------|
D|--------------------------------|--------------------------0-----|
A|------------0---------------0-0-|0-----0-----2-------2-2-2---2-0-|
E|3-----3-------------------------|--------------------------------|


G|--------------------------------|--------------------------------|
D|--------------------------------|--------------------------------|
A|------------0---------------0---|----------------------------0---| (x8)
E|3-----3-----------------------3-|2-----2-----3-------------------|


Outro:
G|--------------------------------|--------------------------------|
D|--------------------------------|--------------------------0-----|
A|------------0---------------0-0-|0-----0-----2-------2-2-2---2-0-|
E|3-----3-------------------------|--------------------------------|

G|--------------------------------|--------------------------------|
D|--------------------------------|--------------------------------|
A|------------0---------------0---|----------------------------0---| (x8)

Almost there ...

Sign in to get your own page with links to favourite songs and more. You are just one click away...

Login with Facebook Login with Google