Beautiful Stranger by Madonna

Beautiful Stranger chords by Madonna

Guitar chords with lyrics

BEAUTIFUL STRANGER
Madonna



Chords used in the song:

  B  A7  C7sus C7  F#  E  B  E7  B7  F#7  F#m7
E---7----5----9------9----9----7----7----7----7----9-----9---
B---7----5----9------9----11---9----7----9----7----11----10--
G---8----6----11-----10---11---9----8----7----8----9-----9---
D---9----5----9------9----11---9----9----9----7----11----11--
A---9----7----11-----11---9----7----9----7----9----9-----9---
E---7----5----9------9--------------7---------7--------------


For much of the song, you just need to play the individual
notes of the following two chords like so:

  C7sus  C7
E----------------------
B----------------------
G--------11-------10---
D-------9--------9-----
A-----11-------11------
E---9--------9---------

  C7sus  C7
Haven't we met
  C7sus  C7
You're some kind of...

etc.

  B  A7         C7sus  C7
I looked into your eyes...
  B  A7         C7sus  C7
You're the devil in disguise...

Bridge:
F#     E     B
To know you is to..
C#
You're everywhere I go...


Chorus:
E7      B7 F#7  F#m7 C7
Da-da-da-dum da...
C7
Beautiful...

I hope I got it right!

Bobby Sabharwal

all my own work

Find guitar tabs and chords

A B C D E F G H I J K L M N O P Q R S T U V W X Y Z #