GuitarTabsExplorer icon
GuitarTabsExplorer icon

Log in

Songbook

  • Log in to add and see bookmarks

Last visited songs

  • No songs visited yet...
Wings Of A Dove by Madness

Bass tabs

Tuning: Standard (E A D G)

Key: A

Difficulty: Intermediate

Gtr I (E A D G) - 'Mark "Bedders" Bedford - Bass'

 Intro:
 Q=154
 4/4
 Gtr I
 Wx5
G|--------||
D|--------||
A|--------||
E|--------||
 1st, 2nd & 4th Verses:
 Segno $
   Q.  E +H    Q.  Q.  Q  Q.  E +H    Q.  Q.  Q
G||----------------|--------------|---------------|--------------|
D||o---------------|--------------|---------------|--------------|
A||o---------------|------4----5--|-7----7-(7)----|-7----5----4--|
E||--5----5-(5)----|-5------------|---------------|--------------|


  Q.  E +H    Q.  Q.  Q  Q.  E +H    Q.  Q.  Q
G|---------------|--------------|---------------|---------------||
D|---------------|--------------|---------------|---------------||
A|---------------|------4----5--|-7----7-(7)----|-7----5----4---||
E|-5----5-(5)----|-5------------|---------------|---------------||


 Chorus:
  Q.  E +H    Q.  Q.  Q  Q.  E +H    Q.  Q.  Q
G|---------------|--------------|---------------|---------------|
D|---------------|--------------|---------------|---------------|
A|---------------|------4----5--|-7----7-(7)----|-7----5----4---|
E|-5----5-(5)----|-5------------|---------------|---------------|


  Q.  E +H    Q.  Q.  Q  Q.  E +H    Q.  Q.  Q
G|---------------|--------------|---------------|---------------||
D|---------------|--------------|---------------|---------------||
A|---------------|------4----5--|-7----7-(7)----|-7----5----4---||
E|-5----5-(5)----|-5------------|---------------|---------------||


 Interlude:
 1.
  H  H   H  H   H  H   H  H
G|-----------|-----------|-----------|-----------|
D|-----------|-----------|-----------|-----------|
A|------7----|-4---------|-7---------|-----------|
E|-5---------|------5----|------7----|-4----0----|
  H  H   H  H   H  H   H  H
G|-----------|-----------|-----------|------------||
D|-----------|-----------|-----------|-----------o||
A|------7----|-4---------|-7---------|-----------o||
E|-5---------|------5----|------7----|-4----0-----||


 Chorus:
 2.,D.S.
   Q.  E +H    Q.  Q.  Q  Q.  Q.  Q  Q.  Q.  Q
G||----------------|--------------|--------------|---------------||
D||o---------------|--------------|--------------|--------------o||
A||o---------------|-----------4--|-5----3----2--|--------------o||
E||--5----5-(5)----|-5----7-------|--------------|-3----3----3---||


  Q.  Q.  Q  +W      W     +W
G|--------------|------------|----------|--------|
D|--------------|------------|----------|--------|
A|-1----1----1--|-(1)--------|-5--------|-(5)----|
E|--------------|------------|----------|--------|


                      To Coda
  W     +W      W     E Q E Q Q
G|----------|------------|----------|---------------||
D|----------|------------|----------|---------------||
A|----------|------------|----------|-7-7--7-5--4---||
E|-3--------|-(3)--------|-0--------|---------------||


 Bridge:
   Q.  Q.  Q  Q.  Q.  Q  Q.  Q.  Q  Q.  Q.  Q
G||---------------|--------------|--------------|---------------||
D||o--------------|--------------|--------------|--------------o||
A||o------4----5--|-7----5----4--|------4----5--|-7----5----4--o||
E||--5------------|--------------|-5------------|---------------||


  Q.  Q.  Q  Q.  Q.  Q  Q.  Q.  Q  Q.  Q.  Q
G|--------------|--------------|--------------|---------------|
D|--------------|--------------|--------------|---------------|
A|------2----3--|-5----3----2--|------2----3--|-5----3----2---|
E|-3------------|--------------|-3------------|---------------|


  Q.  Q.  Q  Q.  Q.  Q  Q.  Q.  Q  Q.  Q.  Q
G|--------------|--------------|--------------|---------------||
D|--------------|--------------|--------------|---------------||
A|------4----5--|-7----5----4--|------4----5--|-7----5----4---||
E|-5------------|--------------|-5------------|---------------||


 3rd Verse:
  Q.  E +H    Q.  Q.  Q  Q.  E +H    Q.  Q.  Q
G|---------------|--------------|---------------|---------------|
D|---------------|--------------|---------------|---------------|
A|---------------|------4----5--|-7----7-(7)----|-7----5----4---|
E|-5----5-(5)----|-5------------|---------------|---------------|


                        Dal Segno al Coda
  Q.  E +H    Q.  Q.  Q  Q.  E +H    Q.  Q.  Q
G|---------------|--------------|---------------|---------------||
D|---------------|--------------|---------------|---------------||
A|---------------|------4----5--|-7----7-(7)----|-7----5----4---||
E|-5----5-(5)----|-5------------|---------------|---------------||


 Outro:
  Coda &
   Q.  Q.  Q  E Q E Q Q  Q.  E +H    Q.  E +H
G||---------------|--------------|---------------|----------------||
D||o--------------|--------------|---------------|---------------o||
A||o------4----5--|-7-7--7-5--4--|---------------|---------------o||
E||--5------------|--------------|-7----7-(7)----|-0----0-(0)-----||


   Q.  E +H    Q.  Q.  Q  Q.  E +H    Q.  Q.  Q  4x
G||----------------|--------------|---------------|---------------||
D||o---------------|--------------|---------------|--------------o||
A||o---------------|------4----5--|-7----7-(7)----|-7----5----4--o||
E||--5----5-(5)----|-5------------|---------------|---------------||

************************************
Duration 🏷Legend

W - whole; H - half; Q - quarter; E - 8th; S - 16th; a - acciaccatura;
+ - note tied to previous; . - note dotted;
Duration letters will always appear directly above the note/fret number it represents the
duration for. Duration letters with no fret number below them represent rests.
Uncapitalized letters represent notes that are staccato (1/2 duration).

| (n) - note tied to previous
************************************

[ Privacy | About us ]

Welcome to the guitar community

Why join and log in?
- Get songbook with favourite songs
- Get custom made front page
- Submit chords and tabs
- Submit guitar-cover videos
- Get a lot of thumbs up for your work

Songbook

Last visited songs

Site
Home
Search
Community
Submit chords

Video

No video for this page. Check out how you can submit guitar-cover videos here

Search tabs and chords

Browse by artist

A B C D E F G H I J K L M N O P Q R S T U V W X Y Z #


Menu

Search

Video

Bookmark

Login