GuitarTabsExplorer icon
GuitarTabsExplorer icon

Log in

Songbook

  • Log in to add and see bookmarks

Last visited songs

  • No songs visited yet...
They Call It Madness by Madness

They Call It Madness bass tab by Madness

Bass tabs

std tuning


INTRO
G |-----------------|-------------4---|-----------------|-------------4---|
D |---------5-------|-----7---5-------|---------5-------|-----7---5-------|
A |-----7-------7---|-8---------------|-----7-------7---|-8---------------|
E |-8---------------|-----------------|-8---------------|-----------------|
  1 & 2 & 3 & 4 &  1 & 2 & 3 & 4 &  1 & 2 & 3 & 4 &  1 & 2 & 3 & 4 &


VERSE
G |-----------------|---------5-------|-----------------|-----------------|
D |---------5-------|-----7-------7---|---------5---7---|-8---7---5-------|
A |-----7-------7---|-8---------------|-----7-----------|-------------7---|
E |-8---------------|-----------------|-8---------------|-----------------|
  1 & 2 & 3 & 4 &  1 & 2 & 3 & 4 &  1 & 2 & 3 & 4 &  1 & 2 & 3 & 4 &

G |---------5-------|---------5-------|-----------------|-----------------|
D |-----7-------7---|-----7-------7---|---------5---7---|-8---7---5-------|
A |-8---------------|-8---------------|-----7-----------|-------------7---|
E |-----------------|-----------------|-8---------------|-----------------|
  1 & 2 & 3 & 4 &  1 & 2 & 3 & 4 &  1 & 2 & 3 & 4 &  1 & 2 & 3 & 4 &

G |---------5-------|---------5-------|-----------------|-----------------|
D |-----7-------7---|-----7-------7---|-5---5-----------|-----------------|
A |-8---------------|-8---------------|---------8---8---|-7---5---7---8---|
E |-----------------|-----------------|-----------------|-----------------|
  1 & 2 & 3 & 4 &  1 & 2 & 3 & 4 &  1 & 2 & 3 & 4 &  1 & 2 & 3 & 4 &

G |-----------------|-----4---7---4---|-----------------|-----------------|
D |---------5-------|-5---------------|---------5---7---|-8---7---5-------|
A |-----7-------7---|-----------------|-----7-----------|-------------7---|
E |-8---------------|-----------------|-8---------------|-----------------|
  1 & 2 & 3 & 4 &  1 & 2 & 3 & 4 &  1 & 2 & 3 & 4 &  1 & 2 & 3 & 4 &


VERSE
G |-----------------|---------5-------|-----------------|-----------------|
D |---------5-------|-----7-------7---|---------5---7---|-8---7---5-------|
A |-----7-------7---|-8---------------|-----7-----------|-------------7---|
E |-8---------------|-----------------|-8---------------|-----------------|
  1 & 2 & 3 & 4 &  1 & 2 & 3 & 4 &  1 & 2 & 3 & 4 &  1 & 2 & 3 & 4 &

G |---------5-------|---------5-------|-----------------|-----------------|
D |-----7-------7---|-----7-------7---|---------5---7---|-8---7---5-------|
A |-8---------------|-8---------------|-----7-----------|-------------7---|
E |-----------------|-----------------|-8---------------|-----------------|
  1 & 2 & 3 & 4 &  1 & 2 & 3 & 4 &  1 & 2 & 3 & 4 &  1 & 2 & 3 & 4 &

G |---------5-------|---------5-------|-----------------|-----------------|
D |-----7-------7---|-----7-------7---|-5---5-----------|-----------------|
A |-8---------------|-8---------------|---------8---8---|-7---5---7---8---|
E |-----------------|-----------------|-----------------|-----------------|
  1 & 2 & 3 & 4 &  1 & 2 & 3 & 4 &  1 & 2 & 3 & 4 &  1 & 2 & 3 & 4 &

G |-----------------|-----4---7---4---|-----------------|-----------------|
D |---------5-------|-5---------------|---------5---7---|-8---7---5-------|
A |-----7-------7---|-----------------|-----7-----------|-------------7---|
E |-8---------------|-----------------|-8---------------|-----------------|
  1 & 2 & 3 & 4 &  1 & 2 & 3 & 4 &  1 & 2 & 3 & 4 &  1 & 2 & 3 & 4 &
SAX
G |-----------------|---------5-------|-----------------|-----------------|
D |---------5-------|-----7-------7---|---------5---7---|-8---7---5-------|
A |-----7-------7---|-8---------------|-----7-----------|-------------7---|
E |-8---------------|-----------------|-8---------------|-----------------|
  1 & 2 & 3 & 4 &  1 & 2 & 3 & 4 &  1 & 2 & 3 & 4 &  1 & 2 & 3 & 4 &

G |---------5-------|---------5-------|-----------------|-----------------|
D |-----7-------7---|-----7-------7---|---------5---7---|-8---7---5-------|
A |-8---------------|-8---------------|-----7-----------|-------------7---|
E |-----------------|-----------------|-8---------------|-----------------|
  1 & 2 & 3 & 4 &  1 & 2 & 3 & 4 &  1 & 2 & 3 & 4 &  1 & 2 & 3 & 4 &

G |---------5-------|---------5-------|-----------------|-----------------|
D |-----7-------7---|-----7-------7---|-5---5-----------|-----------------|
A |-8---------------|-8---------------|---------8---8---|-7---5---7---8---|
E |-----------------|-----------------|-----------------|-----------------|
  1 & 2 & 3 & 4 &  1 & 2 & 3 & 4 &  1 & 2 & 3 & 4 &  1 & 2 & 3 & 4 &

G |-----------------|-----------------|-----------------|-----------------|
D |---------5-------|-5---4---7---4---|---------5---7---|-8---7---5-------|
A |-----7-------7---|-----------------|-----7-----------|-------------7---|
E |-8---------------|-----------------|-8---------------|-----------------|
  1 & 2 & 3 & 4 &  1 & 2 & 3 & 4 &  1 & 2 & 3 & 4 &  1 & 2 & 3 & 4 &


OTHER BIT
G |---------5-------|---------5-------|-----------------|-----5---7---9---|
D |-----7-------7---|-----7-------7---|---------5---7---|-8---------------|
A |-8---------------|-8---------------|-----7-----------|-----------------|
E |-----------------|-----------------|-8---------------|-----------------|
  1 & 2 & 3 & 4 &  1 & 2 & 3 & 4 &  1 & 2 & 3 & 4 &  1 & 2 & 3 & 4 &

G |---------5-------|---------5-------|-----------------|-----------------|
D |-----7-------7---|-----7-------7---|-----------------|-----------------|
A |-8---------------|-8---------------|-----------------|-----------------|
E |-----------------|-----------------|-8---8---6---6---|-5---3---1---0---|
  1 & 2 & 3 & 4 &  1 & 2 & 3 & 4 &  1 & 2 & 3 & 4 &  1 & 2 & 3 & 4 &


VERSE
G |-----------------|---------5-------|-----------------|-----------------|
D |---------5-------|-----7-------7---|---------5---7---|-8---7---5-------|
A |-----7-------7---|-8---------------|-----7-----------|-------------7---|
E |-8---------------|-----------------|-8---------------|-----------------|
  1 & 2 & 3 & 4 &  1 & 2 & 3 & 4 &  1 & 2 & 3 & 4 &  1 & 2 & 3 & 4 &

G |---------5-------|---------5-------|-----------------|-----------------|
D |-----7-------7---|-----7-------7---|---------5---7---|-8---7---5-------|
A |-8---------------|-8---------------|-----7-----------|-------------7---|
E |-----------------|-----------------|-8---------------|-----------------|
  1 & 2 & 3 & 4 &  1 & 2 & 3 & 4 &  1 & 2 & 3 & 4 &  1 & 2 & 3 & 4 &

G |---------5-------|---------5-------|-----------------|-----------------|
D |-----7-------7---|-----7-------7---|-5---5-----------|-----------------|
A |-8---------------|-8---------------|---------8---8---|-7---5---7---8---|
E |-----------------|-----------------|-----------------|-----------------|
  1 & 2 & 3 & 4 &  1 & 2 & 3 & 4 &  1 & 2 & 3 & 4 &  1 & 2 & 3 & 4 &

G |-----------------|-----4---7---4---|-----------------|-----------------|
D |---------5-------|-5---------------|---------5---7---|-8---7---5-------|
A |-----7-------7---|-----------------|-----7-----------|-------------7---|
E |-8---------------|-----------------|-8---------------|-----------------|
  1 & 2 & 3 & 4 &  1 & 2 & 3 & 4 &  1 & 2 & 3 & 4 &  1 & 2 & 3 & 4 &


ENDING
G |-----4---7---4---|-----4---7---4---|-----------------|-----------------|
D |-5---------------|-5---------------|---------5---7---|-8---7---5-------|
A |-----------------|-----------------|-----7-----------|-------------7---|
E |-----------------|-----------------|-8---------------|-----------------|
  1 & 2 & 3 & 4 &  1 & 2 & 3 & 4 &  1 & 2 & 3 & 4 &  1 & 2 & 3 & 4 &

G |-----4---7---4---|-----4---7---4---|-5---------------|-------4-----5---|
D |-5---------------|-5---------------|-----8---7---6---|-5--7------------|
A |-----------------|-----------------|-----------------|-----------------|
E |-----------------|-----------------|-----------------|-----------------|
  1 & 2 & 3 & 4 &  1 & 2 & 3 & 4 &  1 & 2 & 3 & 4 &  1 & 2 & 3 & 4 &

G |-5---------------|-------4-----5---|
D |-----8---7---6---|-5--7------------|
A |-----------------|-----------------|
E |-----------------|-----------------|
  1 & 2 & 3 & 4 &  1 & 2 & 3 & 4 &

G |-5---------------|-------4-----5---|
D |-----8---7---6---|-5--7------------|
A |-----------------|-----------------|
E |-----------------|-----------------|
  1 & 2 & 3 & 4 &  1 & 2 & 3 & 4 &

[ Privacy | About us ]

Welcome to the guitar community

Why join and log in?
- Get songbook with favourite songs
- Get custom made front page
- Submit chords and tabs
- Submit guitar-cover videos
- Get a lot of thumbs up for your work

Songbook

Last visited songs

Site
Home
Search
Community
Submit chords

Video

No video for this page. Check out how you can submit guitar-cover videos here

Search tabs and chords

Browse by artist

A B C D E F G H I J K L M N O P Q R S T U V W X Y Z #


Menu

Search

Video

Bookmark

Login