GuitarTabsExplorer icon
GuitarTabsExplorer icon

Log in

Songbook

  • Log in to add and see bookmarks

Last visited songs

  • No songs visited yet...
Take It Or Leave It by Madness

Take It Or Leave It bass tab by Madness

Bass tabs

Madness - Take It Or Leave It (Bass Guitar Tab)
       ----------------------------------------------


 This song consists of eight riffs.



 Riff One
       B |------------------------|
       D |------------------------|
       A |-------6-8-11-10-888----|
       E |-666-9------------------|
 Riff Two
       B |------------------------|
       D |------------------------|
       A |-----------6-888--------|
       E |-444-6-888--------------|


 Riff Three
       B |--------------------------|
       D |--------------------------|
       A |-------------8-8-10-10-10-|
       E |-666-8-10-10--------------|


 Riff Four
       B |------------------------|
       D |-----------5555-66------|
       A |-6666-8888--------------|
       E |------------------------|


 Riff Five
       B |------------------------|
       D |-8886-8-6---6-----------|
       A |----------8---888-------|
       E |------------------------|


 Riff Six
       B |------------------------|
       D |------------------------|
       A |-------33-66------------|
       E |-444-6-------444--------|
 Riff Seven
       B |------------------------|
       D |-------33-66------------|
       A |-444-6-------444--------|
       E |------------------------|


 Riff Eight
       B |------------------------|
       D |-------55-88------------|
       A |-666-8-------666--------|
       E |------------------------|



 Song Order
------------

 Piano intro for 12 bars

 Bass Enters
       Section 1

       ----------------|
       Riff one  x 4 |
       Riff two  x 1 | Play this section
       Riff Three x 1 | through twice
       Riff four x 1 |
       Riff Five x 2 |
       ----------------|


       Section 2

       ----------------|
       Riff six  x 2 |
       Riff seven x 1 | Play this section
       Riff six  x 1 | through once
       Riff eight x 1 |
       Riff six  x 1 |
       ----------------|


       Section 3

       ----------------|
       Riff one  x 4 |
       Riff two  x 1 | Play this section
       Riff Three x 1 | through once
       Riff four x 1 |
       Riff Five x 4 |
       ----------------|


 Outro    Play riff one to fade
-------

           End


      Transcribed by McSkillby
      --------------------------

[ Privacy | About us ]

Welcome to the guitar community

Why join and log in?
- Get songbook with favourite songs
- Get custom made front page
- Submit chords and tabs
- Submit guitar-cover videos
- Get a lot of thumbs up for your work

Songbook

Last visited songs

Site
Home
Search
Community
Submit chords

Video

No video for this page. Check out how you can submit guitar-cover videos here

Search tabs and chords

Browse by artist

A B C D E F G H I J K L M N O P Q R S T U V W X Y Z #


Menu

Search

Video

Bookmark

Login