GuitarTabsExplorer icon
GuitarTabsExplorer icon

Log in

Songbook

  • Log in to add and see bookmarks

Last visited songs

  • No songs visited yet...
Shut Up by Madness

Bass tabs

Intro:

G|-----------------------------------------------------------------------------|
D|------2-2/-7-----------------------------------------------------------------|
A|--3-3-----------7-10-7-------------------------------------------------------|x2
E|-----------------------------------------------------------------------------|

I tell you I didn't do it......
Verse:

G|-----------------------------------------------------------------------------|
D|-----------------------------------------------------------------------------|
A|------2-2/-7-----------------------------------------------------------------|x2
E|--3-3----------7-10-7--------------------------------------------------------|

G|-----------------------------------------------------------------------------|
D|-----------------------------------------------------------------------------|
A|------4-4/-9-----------------------------------------------------------------|x2
E|--5-5----------9-12-9--------------------------------------------------------|
Now pass the Blame...
Chorus:

G|-----------------------------------------------------------------------------|
D|-------------------------3333-77777777------1111-55555555--------------------|
A|-----------22222222-5555---------------3333---------------1111-4444-88888888-|
E|-0000-3333-------------------------------------------------------------------|

Verse 2:

G|-----------------------------------------------------------------------------|
D|------2-2/-7-----------------------------------------------------------------|
A|--3-3-----------7-10-7-------------------------------------------------------|x2
E|-----------------------------------------------------------------------------|

G|-----------------------------------------------------------------------------|
D|-----------------------------------------------------------------------------|
A|------2-2/-7-----------------------------------------------------------------|x2
E|--3-3----------7-10-7--------------------------------------------------------|

G|-----------------------------------------------------------------------------|
D|-----------------------------------------------------------------------------|
A|------4-4/-9-----------------------------------------------------------------|x2
E|--5-5----------9-12-9--------------------------------------------------------|

Now pass the Blame...
Chorus 2:

G|-----------------------------------------------------------------------------|
D|-------------------------3333-77777777------1111-55555555--------------------|
A|-----------22222222-5555---------------3333---------------1111-4444-88888888-|
E|-0000-3333-------------------------------------------------------------------|


Interlude:

G|---------------------------------------------------------------------------|
D|--------------------------------33----33-----------------------------------| Hold The A notes notes
A|-----------------------------------33----333333----------------------------|
E|-5---------3h5-----------5-------------------------------------------------|

Chorus 3:

G|-----------------------------------------------------------------------------|
D|-------------------------3333-77777777------1111-55555555--------------------| Play Till Fade
A|-----------22222222-5555---------------3333---------------1111-4444-88888888-|
E|-0000-3333-------------------------------------------------------------------|

[ Privacy | About us ]

Welcome to the guitar community

Why join and log in?
- Get songbook with favourite songs
- Get custom made front page
- Submit chords and tabs
- Submit guitar-cover videos
- Get a lot of thumbs up for your work

Songbook

Last visited songs

Site
Home
Search
Community
Submit chords

Video

No video for this page. Check out how you can submit guitar-cover videos here

Search tabs and chords

Browse by artist

A B C D E F G H I J K L M N O P Q R S T U V W X Y Z #


Menu

Search

Video

Bookmark

Login