GuitarTabsExplorer icon
GuitarTabsExplorer icon

Log in

Songbook

  • Log in to add and see bookmarks

Last visited songs

  • No songs visited yet...
Driving In My Car by Madness

Driving In My Car bass tab by Madness

Bass tabs

  • Difficulty: Beginner
🚗 Intro:

G|-----------------|-----------------|-----------------|-----------------|
D|-----------------|-----------------|-----------------|-----------------|
A|-----------------|-----------------|-----------------|-----------------|
E|-----------------|-----------------|-----------------|-----------------|
  1 + 2 + 3 + 4 +  1 + 2 + 3 + 4 +  1 + 2 + 3 + 4 +  1 + 2 + 3 + 4 +

🚗 Chorus 1:  "I've been driving in my car "
G|-----------------|-----------------|-----------------|-----------------|
D|-----------------|-----------------|-----------------|-----------------|
A|-----------------|-5---0---2-2-----|-----------------|-5---0---2-2-----|
E|-----------------|-------------2---|-----------------|-------------2---|
  1 + 2 + 3 + 4 +  1 + 2 + 3 + 4 +  1 + 2 + 3 + 4 +  1 + 2 + 3 + 4 +

G|-----------------|-----------------|-----------------|-----------------|
D|-----------------|-----------------|-----------------|-----------------|
A|-------------8\--|-5---0---2-2-----|-----------------|-5---0---2-2-----|
E|-----------------|-------------2---|-----------------|-------------2---|
  1 + 2 + 3 + 4 +  1 + 2 + 3 + 4 +  1 + 2 + 3 + 4 +  1 + 2 + 3 + 4 +

🚗 Verse 1: "It was made in fifty-nine "
G|-----------------|-----------------|-----------------|-----------------|
D|-----------------|-----------------|-----------------|-----------------|
A|-----0-0-2-5-2---|-----------------|-----0-0-2-5-2---|-0-0-0-0-0---8\--|
E|-3-3-------------|-1-1-----1-1-----|-3-3-------------|-----------------|
  1 + 2 + 3 + 4 +  1 + 2 + 3 + 4 +  1 + 2 + 3 + 4 +  1 + 2 + 3 + 4 +

G|-----------------|-----------------|-----------------|-----------------|
D|-----------------|-----------------|-----------------|-----------------|
A|-5---0---2-2-----|-0-0-0-2-0-------|-5---0---2-2-----|-0-0-0-2-0-------|
E|-------------2---|-----------------|-------------2---|-----------------|
  1 + 2 + 3 + 4 +  1 + 2 + 3 + 4 +  1 + 2 + 3 + 4 +  1 + 2 + 3 + 4 +

G|-----------------|-----------------|-----------------|-----------------|
D|-----------------|-----------------|-----------------|-----------------|
A|-----0-0-2-5-2---|-----------------|-5---0---2-2-----|-0-0-0-2-0-------|
E|-3-3-------------|-1-1-----1-1-----|-------------2---|-----------------|
  1 + 2 + 3 + 4 +  1 + 2 + 3 + 4 +  1 + 2 + 3 + 4 +  1 + 2 + 3 + 4 +

Sax Lick 1:
G|-----------------|-----------------|-----------------|-----------------|
D|-----------------|-----------------|-----------------|-----------------|
A|-----0-2-5-2-0---|-3-----5-6-------|-----0-2-5-2-0---|-3-----5-6---4---|
E|---3-----------3-|-----------------|---3-----------3-|-----------------|
  1 + 2 + 3 + 4 +  1 + 2 + 3 + 4 +  1 + 2 + 3 + 4 +  1 + 2 + 3 + 4 +

🚗 Verse 2: "It's a bit old but it's mine "
G|-----------------|-----------------|-----------------|-----------------|
D|-----------------|-----------------|-----------------|-----------------|
A|-5---0---2-2-----|-0-0-0-2-0-------|-5---0---2-2-----|-0-0-0-2-0-------|
E|-------------2---|-----------------|-------------2---|-----------------|
  1 + 2 + 3 + 4 +  1 + 2 + 3 + 4 +  1 + 2 + 3 + 4 +  1 + 2 + 3 + 4 +

G|-----------------|-----------------|-----------------|-----------------|
D|-----------------|-----------------|-----------------|-----------------|
A|-----0-0-2-5-2---|-----------------|-5---0---2-2-----|-5---0---2-2-----|
E|-3-3-------------|-1-1-----1-1-----|-------------2---|-------------2---|
  1 + 2 + 3 + 4 +  1 + 2 + 3 + 4 +  1 + 2 + 3 + 4 +  1 + 2 + 3 + 4 +

🚗 Bridge:  "Last week it went 'round the clock "
G|-----------------|-----------------|-----------------|-----------------|---19------------|
D|-----------------|-----------------|-----------------|-----------------|-19--------------|
A|-0-0-0-0-0-0-0-0-|-1-1-1-0-1-1-1-1-|-2-2-2-1-2-2-2-2-|-7---------------|-----------------|
E|-----------------|-----------------|-----------------|-----------------|-----------------|
  1 + 2 + 3 + 4 +  1 + 2 + 3 + 4 +  1 + 2 + 3 + 4 +  1 + 2 + 3 + 4 +  1 + 2 + 3 + 4 +

Piano 🚗 Solo:
G|-----------------|-----------------|-----------------|-----------------|
D|-----------------|-----------------|-----------------|-----------------|
A|-5---0---2-2-----|-5-5-0-0-2-2-----|-5---0---2-2-----|-5-5-0-0-2-2-----| x2
E|-------------2---|-------------2---|-------------2---|-------------2---|
  1 + 2 + 3 + 4 +  1 + 2 + 3 + 4 +  1 + 2 + 3 + 4 +  1 + 2 + 3 + 4 +

🚗 Chorus 2:  "I've been driving in my car "
G|-----------------|-----------------|-----------------|-----------------|
D|-----------------|-----------------|-----------------|-----------------|
A|-----------------|-5---0---2-2-----|-----------------|-5---0---2-2-----|
E|-----------------|-------------2---|-----------------|-------------2---|
  1 + 2 + 3 + 4 +  1 + 2 + 3 + 4 +  1 + 2 + 3 + 4 +  1 + 2 + 3 + 4 +

G|-----------------|-----------------|-----------------|-----------------|
D|-----------------|-----------------|-----------------|-----------------|
A|-------------8\--|-5---0---2-2-----|-----------------|-5---0---2-2-----|
E|-----------------|-------------2---|-----------------|-------------2---|
  1 + 2 + 3 + 4 +  1 + 2 + 3 + 4 +  1 + 2 + 3 + 4 +  1 + 2 + 3 + 4 +

🚗 Verse 3:  "I drove along the A45 "
G|-----------------|-----------------|-----------------|-----------------|
D|-----------------|-----------------|-----------------|-----------------|
A|-----0-0-2-5-2---|-----------------|-----0-0-2-5-2---|-0-0-0-0-0---8\--|
E|-3-3-------------|-1-1-----1-1-----|-3-3-------------|-----------------|
  1 + 2 + 3 + 4 +  1 + 2 + 3 + 4 +  1 + 2 + 3 + 4 +  1 + 2 + 3 + 4 +

G|-----------------|-----------------|-----------------|-----------------|
D|-----------------|-----------------|-----------------|-----------------|
A|-5---0---2-2-----|-0-0-0-2-0-------|-5---0---2-2-----|-0-0-0-2-0-------|
E|-------------2---|-----------------|-------------2---|-----------------|
  1 + 2 + 3 + 4 +  1 + 2 + 3 + 4 +  1 + 2 + 3 + 4 +  1 + 2 + 3 + 4 +

G|-----------------|-----------------|-----------------|-----------------|
D|-----------------|-----------------|-----------------|-----------------|
A|-----0-0-2-5-2---|-----------------|-5---0---2-2-----|-0-0-0-2-0-------|
E|-3-3-------------|-1-1-----1-1-----|-------------2---|-----------------|
  1 + 2 + 3 + 4 +  1 + 2 + 3 + 4 +  1 + 2 + 3 + 4 +  1 + 2 + 3 + 4 +

Sax Lick 2:                          (!)
G|-----------------|-----------------|-----------------|-------------------------|
D|-----------------|-----------------|-----------------|-------------------------|
A|-----0-2-5-2-0---|-3-----5-6-------|-----0-2-5-2-0---|-3-----5-7---------------|
E|---3-----------3-|-----------------|---3-----------3-|-------------------------|
  1 + 2 + 3 + 4 +  1 + 2 + 3 + 4 +  1 + 2 + 3 + 4 +  1 + 2 + 3 + 4 + 5 + 6 +

🚗 Chorus 3:  "I like driving in my car "
G|-----------------|-----------------|-----------------|-----------------|
D|-----------------|-----------------|-----------------|-----------------|
A|-5---0---2-2-----|-5-5-0-0-2-2-----|-5---0---2-2-----|-5-5-0-0-2-2-----| x4
E|-------------2---|-------------2---|-------------2---|-------------2---|
  1 + 2 + 3 + 4 +  1 + 2 + 3 + 4 +  1 + 2 + 3 + 4 +  1 + 2 + 3 + 4 +

Piano 🚗 Outro:              (Fade Out )
G|-----------------|-----------------|-----------------|-----------------|
D|-----------------|-----------------|-----------------|-----------------|
A|-5---0---2-2-----|-5-5-0-0-2-2-----|-5---0---2-2-----|-5-5-0-0-2-2-----| x2
E|-------------2---|-------------2---|-------------2---|-------------2---|
  1 + 2 + 3 + 4 +  1 + 2 + 3 + 4 +  1 + 2 + 3 + 4 +  1 + 2 + 3 + 4 +

****************************************

\ slide down

****************************************

[ Privacy | About us ]

Welcome to the guitar community

Why join and log in?
- Get songbook with favourite songs
- Get custom made front page
- Submit chords and tabs
- Submit guitar-cover videos
- Get a lot of thumbs up for your work

Songbook

Last visited songs

Site
Home
Search
Community
Submit chords

Video

No video for this page. Check out how you can submit guitar-cover videos here

Search tabs and chords

Browse by artist

A B C D E F G H I J K L M N O P Q R S T U V W X Y Z #


Menu

Search

Video

Bookmark

Login