Guitar Tabs Explorer
Madness bass tabs for Drip fed fred

Drip Fed Fred bass tab


Be the first to rate


Ayreon77Author: Ayreon77

Drip Fed Fred bass tab by Madness

"Drip Fed Fred" is a single released from British pop-ska band Madness´ 1999 album, "Wonderful". "Drip Fed Fred" features Ian Dury on vocals.

Bass tabs

Print
  • Tuning: Standard tuning
  • Difficulty: Novice
-------------------------------------------------------------------
                     Artist - Madness
                    ******************
                   Song - Drip Fed Fred
                  ***********************
                 Album -  Wonderful (1999)
                ***************************
                    Tabbed By - Ayreon77
                   **********************
-------------------------------------------------------------------
Tuning = Standard



CHORUS - No Bass
*******


------------------------------
00:16
VERSE 1
********
G|------------|------------|------------|------------|
D|------------|------------|------------|------------|
A|-----2-3--3-|-----2-3--3-|-----2-3--3-|-3-5-6------|
E|-3-5--------|-3-5--------|-3-5--------|-------3--3-|


G|------------|------------|------------|------------|
D|------------|------------|------------|------------|
A|------------|------------|------------|-6-5-4-3--3-|
E|-0-3-0-3--3-|-0-3-0-3--3-|-0-3-0-3--3-|------------|


------------------------------
00:33
VERSE 2
********
G|------------|------------|------------|------------|
D|------------|------------|------------|------------|
A|-----2-3--3-|-----2-3--3-|-----2-3--3-|-3-5-6------|
E|-3-5--------|-3-5--------|-3-5--------|-------3--3-|


G|------------|------------|------------|------------|
D|------------|------------|------------|------------|
A|------------|------------|------------|-6-5-4-3--3-|
E|-0-3-0-3--3-|-0-3-0-3--3-|-0-3-0-3--3-|------------|


-----------------------------
00:51
CHORUS
*******
G|------------|------------|------------|------------|
D|------------|------------|------------|------------|
A|-----2-3--3-|-----2-3--3-|-----2-3--3-|-3-5-6------|
E|-3-5--------|-3-5--------|-3-5--------|-------3--3-|


G|------------|------------|------------|------------|
D|------------|------------|------------|------------|
A|------------|------------|------------|-6-5-4-3--3-|
E|-0-3-0-3--3-|-0-3-0-3--3-|-0-3-0-3--3-|------------|


-----------------------------
01:08
VERSE 3
********
G|------------|------------|------------|------------|
D|------------|------------|------------|------------|
A|-----2-3--3-|-----2-3--3-|-----2-3--3-|-3-5-6------|
E|-3-5--------|-3-5--------|-3-5--------|-------3--3-|


G|------------|------------|------------|------------|
D|------------|------------|------------|------------|
A|------------|------------|------------|-6-5-4-3--3-|
E|-0-3-0-3--3-|-0-3-0-3--3-|-0-3-0-3--3-|------------|


-----------------------------
01:25
PIANO
******
G|------------|------------|------------|------------|
D|------------|------------|------------|------------|
A|-----2-3--3-|-----2-3--3-|-----2-3--3-|-3-5-6------|
E|-3-5--------|-3-5--------|-3-5--------|-------3--3-|


G|------------|------------|------------|------------|
D|------------|------------|------------|------------|
A|------------|------------|------------|-6-5-4-3--3-|
E|-0-3-0-3--3-|-0-3-0-3--3-|-0-3-0-3--3-|------------|


-----------------------------
01:42
BREAK
******
G|--------------|
D|--------------|
A|-----2-3~~~~~-|
E|-3-5----------|


-----------------------------
01:50
CHORUS
*******
G|------------|------------|------------|------------|
D|------------|------------|------------|------------|
A|-----2-3--3-|-----2-3--3-|-----2-3--3-|-3-5-6------|
E|-3-5--------|-3-5--------|-3-5--------|-------3--3-|


G|------------|------------|------------|------------|
D|------------|------------|------------|------------|
A|------------|------------|------------|-6-5-4-3~~~-|
E|-0-3-0-3--3-|-0-3-0-3--3-|-0-3-0-3--3-|------------|


-----------------------------
02:09
VERSE 4
********
G|------------|------------|------------|------------|
D|------------|------------|------------|------------|
A|-----2-3--3-|-----2-3--3-|-----2-3--3-|-3-5-6------|
E|-3-5--------|-3-5--------|-3-5--------|-------3--3-|


G|------------|------------|------------|------------|
D|------------|------------|------------|------------|
A|------------|------------|------------|-6-5-4-3--3-|
E|-0-3-0-3--3-|-0-3-0-3--3-|-0-3-0-3--3-|------------|


-----------------------------
02:26
VERSE 5
********
G|------------|------------|------------|------------|
D|------------|------------|------------|------------|
A|-----2-3--3-|-----2-3--3-|-----2-3--3-|-3-5-6------|
E|-3-5--------|-3-5--------|-3-5--------|-------3--3-|


G|------------|------------|------------|------------|
D|------------|------------|------------|------------|
A|------------|------------|------------|-6-5-4-3--3-|
E|-0-3-0-3--3-|-0-3-0-3--3-|-0-3-0-3--3-|------------|


-----------------------------
02:43
BREAK
******                       Fade Out..........................
G|--------------|-------|-------|-------|-------|-------|-------|
D|--------------|-------|-------|-------|-------|-------|-------|
A|-----2-3~~~~~-|-3~~~~-|-3~~~~-|-3~~~~-|-3~~~~-|-3~~~~-|-3~~~~-|
E|-3-5----------|-------|-------|-------|-------|-------|-------|


-----------------------------
03:06
CHORUS - No Bass
*******

-----------------------------
03:23
CHORUS
*******
G|------|------------|------------|------------|
D|------|------------|------------|------------|
A|-3--3-|-----2-3--3-|-----2-3--3-|-3-5-6------|
E|------|-3-5--------|-3-5--------|-------3--3-|


G|------------|------------|------------|------------|
D|------------|------------|------------|------------|
A|------------|------------|------------|-6-5-4-3--3-|
E|-0-3-0-3--3-|-0-3-0-3--3-|-0-3-0-3--3-|------------|


-----------------------------
03:39
CHORUS
*******
G|------------|------------|------------|------------|
D|------------|------------|------------|------------|
A|-----2-3--3-|-----2-3--3-|-----2-3--3-|-3-5-6------|
E|-3-5--------|-3-5--------|-3-5--------|-------3--3-|


G|------------|------------|------------|------------|Repeat
D|------------|------------|------------|------------|  And
A|------------|------------|------------|-6-5-4-3--3-|   Fade
E|-0-3-0-3--3-|-0-3-0-3--3-|-0-3-0-3--3-|------------|     Out.


-----------------------------
04:09
CHORUS - No Bass
*******

-----------------------------
04:26
CHORUS
*******
G|------|------------|------------|------------|
D|------|------------|------------|------------|
A|-3--3-|-----2-3--3-|-----2-3--3-|-3-5-6------|
E|------|-3-5--------|-3-5--------|-------3--3-|

        Fade Out.......... For Good..............
G|------------|------------|------------|------------|
D|------------|------------|------------|------------|
A|------------|------------|------------|-6-5-4-3--3-|
E|-0-3-0-3--3-|-0-3-0-3--3-|-0-3-0-3--3-|------------|



ENJOY.............

Comment this song and these bass tabs

Do you have corrections, comments on the bass tabs, thoughts about the song or a message to the author? Write them below.