Log in

One click and you are in

Login with Facebook Login with Google

Why sign up and log in

Guitar Tabs Explorer
Madina Lake bass tabs for Whats the point

Bass tabs

WHAT'S THE POINT - Madina Lake.
-------------------------------------------------------------------------------

Tabbed By : mariewong.



Tuning: Drop C.





Verse [00:08]

F|-----------------------------------------------|
C|-----------------------------------------------|
G|-------3555-----3555-----3555-----3555---------|
C|--12\-------00-------00-------00-------00--1~--|

F|------------------------------------------|
C|------------------------------------------|
G|--3555-----3555-----3555-----3555---------|
C|-------00-------00-------00-------00--1~--|



Pre-chorus [00:25]

F|----------------------|
C|----------------------|
G|----------------------|
C|--000--000--000--000--|

F|---------------------------------------------------------|
C|---------------------------------------------------------|
G|---------------------------------------------------------|
C|--3-00-0-0-000-0-3-00-0-0-000-0-3-00-0-0-000-0-3-00-0-0--|



Chorus [00:41]

F|----------------------------|
C|----------------------------|
G|----------------------------|   [x8]
C|--12-00-12-0-10-12-0-12-00--|



Verse [00:59]

F|--------------------------------|
C|--------------------------------|
G|--------------------------------|
C|--0~--3~--5~--7710--0~--3~--5~--|

F|-----------------------------------------------|
C|-----------------------------------------------|
G|-------3555-----3555-----3555-----3555---------|
C|--12\-------00-------00-------00-------00--1~--|



Pre-chorus [01:24]

F|----------------------|
C|----------------------|
G|----------------------|
C|--000--000--000--000--|

F|---------------------------|
C|---------------------------|
G|---------------------------|
C|--0-0-0-0-0-0-0-0--0(x16)--|



Chorus [01:40]

F|----------------------------|
C|----------------------------|
G|----------------------------|   [x16]
C|--12-00-12-0-10-12-0-12-00--|



Outro [02:13]

F|---------------------------------|
C|---------------------------------|
G|---------------------------------|
C|--0--0--0--12\--0--0--0--\12--0--|




| / slide up
| \ slide down
| h hammer-on
| p pull-off
| ~ vibrato
| + harmonic
| x Mute note

Almost there ...

Sign in to get your own page with links to favourite songs and more. You are just one click away...

Login with Facebook Login with Google