Log in

One click and you are in

Login with Facebook Login with Google

Why sign up and log in

Guitar Tabs Explorer
Maddie And Tae guitar tabs for Everywhere im going

Guitar tabs with lyrics

Standard tuning, no capo


Intro:

G, A, B, A chord diagramA majorA (Picked)

e|--------------|----------------|-----------------|--------(3)--------|
B|--------3-----|-------3--------|--------3--------|--------3----------|
G|------0---0-0-|-----0---0---0--|------0---0---0--|------0---0---0----|
D|----0------0--|---2-------2----|----0-------0----|----2-------2------|
A|--------------|-0--------------|--2--------------|--0----------------|
E|--3-----------|----------------|-----------------|-------------------|
Intro:
Ooh, ooh, ooh, ooh
Ooh, ooh, ooh, ooh


Verse 1:
He's as cool as California
Homegrown like they do it in Georgia
With a heart as big as the Lone Star State
Hard to catch like a Kansas breeze
Strong like a Tennessee hickory
He's smooth like the bourbon Kentucky makes
__________________________________________________________________

 Pre-Chorus:
 ** Prechorus is just A chord diagramG MajorG / A chord diagramA majorA / A chord diagramG MajorG (lighter strum)
       A chord diagramG MajorG  A chord diagramA majorA
e|-----3--3---|
B|-----3--3---|
G|-----0--2---|
D|-----0--2---|
A|-----0--0---|
E|-----3------|

Ooh, ooh, ooh
Hot like the Phoenix sun, y'all
Ooh, ooh, ooh
I'm fallin' like a Denver snowfall
_________________________________________________________________

** Chorus is A chord diagramG MajorG / A chord diagramA majorA / A chord diagramE MajorE / A chord diagramC majorC (maintain same chord position, moving only 1st & 2nd fingers)
*** There's a stagger before it jumps to A chord diagramC majorC each time.

       A chord diagramG MajorG  A chord diagramA majorA  A chord diagramE MajorE  A chord diagramC majorC
e|-----3--3--3--3--|
B|-----3--3--3--3--|
G|-----0--2--0--0--|
D|-----0--2--2--0--|
A|-----0--0--2--3--|
E|-----3-----0-----|


Chorus:
Whole world in my living room
It's all you, babe
If I could paint paradise, it'd be you
It's all you, babe
Every red pin on the map I'm holding
You're everywhere I've been
And everywhere I'm goin'
From Backwoods to the neon glowin'
You're everywhere I've been
And everywhere I'm goin'

_________________________________________________________________

Post-Chorus + Verse:

G, A, B, A chord diagramA majorA (Picked)

e|--------------|----------------|-----------------|--------(3)--------|
B|--------3-----|-------3--------|--------3--------|--------3----------|
G|------0---0-0-|-----0---0---0--|------0---0---0--|------0---0---0----|
D|----0------0--|---2-------2----|----0-------0----|----2-------2------|
A|--------------|-0--------------|--2--------------|--0----------------|
E|--3-----------|----------------|-----------------|-------------------|

Post-Chorus:
Ooh, ooh, ooh, ooh


Verse 2:
He's my one-way outta town
Even sitting shotgun riding around
Feels like an East Coast, coastline drive
He's a take-my-breath like a Paris sunset
Takes my heart where it hasn't been yet

_________________________________________________________________

Chorus:

** Chorus is A chord diagramG MajorG / A chord diagramA majorA / A chord diagramE MajorE / A chord diagramC majorC (maintain same chord position, moving only 1st & 2nd fingers)
*** There's a stagger before it jumps to A chord diagramC majorC each time.

       A chord diagramG MajorG  A chord diagramA majorA  A chord diagramE MajorE  A chord diagramC majorC
e|-----3--3--3--3--|
B|-----3--3--3--3--|
G|-----0--2--0--0--|
D|-----0--2--2--0--|
A|-----0--0--2--3--|
E|-----3-----0-----|


Chorus:
Whole world in my living room
It's all you, babe
If I could paint paradise, it'd be you
It's all you, babe
Every red pin on the map I'm holding
You're everywhere I've been
And everywhere I'm goin'
From Backwoods to the neon glowin'
You're everywhere I've been
And everywhere I'm goin'

Post-Chorus: (solo)
Everywhere, everywhere, everywhere I'm goin'


 _________________________________________________________________
 ** Bridge is like the pre-chorus; just A chord diagramG MajorG / A chord diagramA majorA / A chord diagramG MajorG (lighter strum)
       A chord diagramG MajorG  A chord diagramA majorA
e|-----3--3---|
B|-----3--3---|
G|-----0--2---|
D|-----0--2---|
A|-----0--0---|
E|-----3------|


Bridge:
Ooh, ooh, ooh
Hot like the Phoenix sun y'all
Ooh, ooh, ooh
I'm fallin' like a Denver snowfall

_________________________________________________________________
** Chorus is A chord diagramG MajorG / A chord diagramA majorA / A chord diagramE MajorE / A chord diagramC majorC (maintain same chord position, moving only 1st & 2nd fingers)
*** There's a stagger before it jumps to A chord diagramC majorC each time.

       A chord diagramG MajorG  A chord diagramA majorA  A chord diagramE MajorE  A chord diagramC majorC
e|-----3--3--3--3--|
B|-----3--3--3--3--|
G|-----0--2--0--0--|
D|-----0--2--2--0--|
A|-----0--0--2--3--|
E|-----3-----0-----|


Chorus:
Whole world in my living room
It's all you, babe
If I could paint paradise, it'd be you
It's all you, babe
Every red pin on the map I'm holding
You're everywhere I've been
And everywhere I'm goin'
From Backwoods to the neon glowin'
You're everywhere I've been
And everywhere I'm goin'

_________________________________________________________________

Outro:
G, A, B, A chord diagramA majorA (Picked)

e|--------------|----------------|-----------------|--------(3)--------|
B|--------3-----|-------3--------|--------3--------|--------3----------|
G|------0---0-0-|-----0---0---0--|------0---0---0--|------0---0---0----|
D|----0------0--|---2-------2----|----0-------0----|----2-------2------|
A|--------------|-0--------------|--2--------------|--0----------------|
E|--3-----------|----------------|-----------------|-------------------|


Post-Chorus:
Ooh, ooh, ooh
Everywhere I'm goin', goin'
Ooh, ooh, ooh
Everywhere I've been and everywhere I'm goin'


Outro:
Ooh, ooh, ooh, ooh
Ooh, ooh, ooh, ooh


************************************

| (n)  Ghost note

************************************

Almost there ...

Sign in to get your own page with links to favourite songs and more. You are just one click away...

Login with Facebook Login with Google