Log in

One click and you are in

Login with Facebook Login with Google

Why sign up and log in

Guitar Tabs Explorer
Maddie And Tae guitar tabs for After the storm blows through

After The Storm Blows Through tab by Maddie And Tae

Maddie And Tae guitar tabs for After the storm blows through

Intro

-------------------------------------------------------------------------------
                             SONG NAME - Band Name
-------------------------------------------------------------------------------
Tabbed by:
E-mail:
Tuning:

e|----------------------------------------------------------------------------------|
B|--------1------3------3/5----------------1-----3---3----3/5------3-----1----------|
G|--0h2----------------------------0h2-----------------------------------------2p0--|
D|----------------------------------------------------------------------------------|
A|----------------------------------------------------------------------------------|
E|----------------------------------------------------------------------------------|

e|--------------------------------------------------------------------|
B|--------1-----3-------3/5--------3---1---3------3/5\3---------1--1--|
G|--0h2---------------------------------------------------------------|
D|--------------------------------------------------------------------|
A|--------------------------------------------------------------------|
E|--------------------------------------------------------------------|

************************************

| /   slide up
| \   slide down
| h   hammer-on
| p   pull-off
| ~   vibrato
| +   harmonic
| x   Mute note
| b   Bend
| pb  Pre-bend
| br  Bend release
| pbr Pre-bend release
| brb Bend release bend

Other versions of After The Storm Blows Through

After the storm blows throughChords

Almost there ...

Sign in to get your own page with links to favourite songs and more. You are just one click away...

Login with Facebook Login with Google