Log in

One click and you are in

Login with Facebook Login with Google

Why sign up and log in

Guitar Tabs Explorer
Madder Rose tabs for Panic on

Guitar tabs

"Panic On" by Madder Rose
Transcribed by Jonathan Gilana
June 3, 1995


(Play this riff during the verses)

e-----------------------------------------------------8--8----
B--8---8---8---8---8---8---8---8---8---8---8---8---8--8--8----
G--10--10--10--9---9---9---9---9---12--12--12--9---9----------
D--10--10--10--10--10--10--10--10--10--10--10--10--10---------
A--8---8---8---8---8---8---8---8---8---8---8---8---8----------
E-------------------------------------------------------------
e-----------------------------------------------------8-------
B--8---8---8---8---8---8---8---8---8---8---8---8---8--8-------
G--10--10--10--9---9---9---9---9---12--12--12--9---9----------
D--10--10--10--10--10--10--10--10--10--10--10--10--10---------
A--8---8---8---8---8---8---8---8---8---8---8---8---8----------
E-------------------------------------------------------------


VERSE 1:

What I want
He's what I hope to ...


CHORUS:

   A chord diagramA#A#    A chord diagramFF
So panic ...
    A chord diagramA#A#           A chord diagramFF
You really ...
    A chord diagramA#A#              A chord diagramFF
But I don't need ...

VERSE 2:

Had a light....

*CHORUS (2X) (with distortion)

But you'll find out ....

*CHORUS

But you'll find out ...



BASS LINE:


VERSES:

   What I want...
G------------------------------------------------
D------------------------------------------------
A--8------8------8------8------8------8----------
E------------------------------------------------

   See the trees...                            ...in the sky
G-----------------------------------------------------------
D----------8---8h10---8---7------------8---8h10---8---7-----
A-----------------------------------------------------------
E--6--------------------------6-----------------------------


CHORUS:

    So panic on...
G-----------------------------------------------------------
D-----------------------------------------------------------
A-----------------------------------------------------------
E---6---6---6\1---1---1---1/6---6---6---6\1---1---1---1/6---


*These lyrics may not be totally correct

gilajon@minna.acc.iit.edu

Almost there ...

Sign in to get your own page with links to favourite songs and more. You are just one click away...

Login with Facebook Login with Google