Log in

One click and you are in

Login with Facebook Login with Google

Why sign up and log in

Guitar Tabs Explorer
Madcon bass tabs for The way we do thangs

Bass tabs

Band: Madcon
Tabbed by: batida

Another cool song by Madcon :)

Here is the bass part:

g:----------------------------------------------|
d:--4--1-------3----------3----------4--1-------|
A:--------1-------5----x-----5----------------x-|
E:----------------------------------------------|

This figure is played nearly all the time.

After the second chorus there is a break for the bass line. Just listen.

Then the bass line continues until the bridge ( 2:31 )

Then play:

g:---------------------------------|
d:---------------------------------|(play 4 times)
A:--6-6----4--4--x-2--2----1--1--x-|
E:---------------------------------|

And then play again until the end

g:----------------------------------------------|
d:--4--1-------3----------3----------4--1-------|
A:--------1-------5----x-----5----------------x-|
E:----------------------------------------------|

Hf playing the song
greetz batida

Almost there ...

Sign in to get your own page with links to favourite songs and more. You are just one click away...

Login with Facebook Login with Google