Log in

One click and you are in

Login with Facebook Login with Google

Why sign up and log in

Guitar Tabs Explorer
Madcon guitar tabs for Callin you

Guitar tabs

Tuning: Standard (E A D G B E)

Key: A chord diagramG MajorG

Difficulty: Novice

*********************************
| / = slide up
*********************************
Intro:

   A chord diagramE minorEm    A chord diagramFF                       A chord diagramG MajorG       A chord diagramA minorAm                   A chord diagramC majorC
e|------------------------------------------------------------12--| x2
B|--7--7/9--9--9-----9-----9-----12--12/13--13--13-----13---------|
G|----------------------------------------------------------------|
D|----------------------------------------------------------------|
A|----------------------------------------------------------------|
E|----------------------------------------------------------------|


Verse:

   A chord diagramE minorEm    A chord diagramFF                       A chord diagramG MajorG       A chord diagramA minorAm                   A chord diagramC majorC
e|------------------------------------------------------------12--| x2
B|--7--7/9--9--9-----9-----9-----12--12/13--13--13-----13---------|
G|----------------------------------------------------------------|
D|----------------------------------------------------------------|
A|----------------------------------------------------------------|
E|----------------------------------------------------------------|


Pre-Chorus:

   A chord diagramE minorEm    A chord diagramFF                       A chord diagramG MajorG       A chord diagramA minorAm                   A chord diagramC majorC
e|------------------------------------------------------------12--| x2
B|--7--7/9--9--9-----9-----9-----12--12/13--13--13-----13---------|
G|----------------------------------------------------------------|
D|----------------------------------------------------------------|
A|----------------------------------------------------------------|
E|----------------------------------------------------------------|

Chorus:

    A chord diagramE minorEm    A chord diagramFF                       A chord diagramG MajorG       A chord diagramA minorAm                   A chord diagramC majorC
e|------------------------------------------------------------12--| x4
B|--7--7/9--9--9-----9-----9-----12--12/13--13--13-----13---------|
G|----------------------------------------------------------------|
D|----------------------------------------------------------------|
A|----------------------------------------------------------------|
E|----------------------------------------------------------------|

Post-Chorus:

   A chord diagramE minorEm    A chord diagramFF                       A chord diagramG MajorG       A chord diagramA minorAm                   A chord diagramC majorC
e|------------------------------------------------------------12--| x2
B|--7--7/9--9--9-----9-----9-----12--12/13--13--13-----13---------|
G|----------------------------------------------------------------|
D|----------------------------------------------------------------|
A|----------------------------------------------------------------|
E|----------------------------------------------------------------|


Verse 2:

   A chord diagramE minorEm    A chord diagramFF                       A chord diagramG MajorG       A chord diagramA minorAm                   A chord diagramC majorC
e|------------------------------------------------------------12--| x2
B|--7--7/9--9--9-----9-----9-----12--12/13--13--13-----13---------|
G|----------------------------------------------------------------|
D|----------------------------------------------------------------|
A|----------------------------------------------------------------|
E|----------------------------------------------------------------|


Pre-Chorus:

   A chord diagramE minorEm    A chord diagramFF                       A chord diagramG MajorG       A chord diagramA minorAm                   A chord diagramC majorC
e|------------------------------------------------------------12--| x2
B|--7--7/9--9--9-----9-----9-----12--12/13--13--13-----13---------|
G|----------------------------------------------------------------|
D|----------------------------------------------------------------|
A|----------------------------------------------------------------|
E|----------------------------------------------------------------|


Chorus:

    A chord diagramE minorEm    A chord diagramFF                       A chord diagramG MajorG       A chord diagramA minorAm                   A chord diagramC majorC
e|------------------------------------------------------------12--| x4
B|--7--7/9--9--9-----9-----9-----12--12/13--13--13-----13---------|
G|----------------------------------------------------------------|
D|----------------------------------------------------------------|
A|----------------------------------------------------------------|
E|----------------------------------------------------------------|

Post-Chorus:

   A chord diagramE minorEm    A chord diagramFF                       A chord diagramG MajorG       A chord diagramA minorAm                   A chord diagramC majorC
e|------------------------------------------------------------12--| x2
B|--7--7/9--9--9-----9-----9-----12--12/13--13--13-----13---------|
G|----------------------------------------------------------------|
D|----------------------------------------------------------------|
A|----------------------------------------------------------------|
E|----------------------------------------------------------------|


************************************

| /  Slide up

************************************

Almost there ...

Sign in to get your own page with links to favourite songs and more. You are just one click away...

Login with Facebook Login with Google