Log in

One click and you are in

Login with Facebook Login with Google

Why sign up and log in

Guitar Tabs Explorer
Madcon bass tabs for Beggin

Bass tabs

Ok this is pretty much my first tab so its proberbly very wrong but its a
good bassline and a great song so i though someone better do a tab for it.
Here goes

0:20
G|--------7-5-------------------------------------------------------|
D|------------7-5---------------------------------------------------|
A|----------------8-5~-------5~------5~------5~------5--------------|
E|-----------------------5-8-----5-8-----5-8-----5-8----------------|

0:30
G|-------------------------------------------------|
D|-------------------5----------7---7----7---------|
A|-------5-5--7-8--8---8-7-7--7------8-7-----------| x9 (i think)
E|-------------------------------------------------|

1:30
G|---------------------------------------------------|
D|-----------------5-5-----------7---7-----5---------|
A|-------5--5-5-5------8-7--7--7-------8-7-----------| x2
E|---------------------------------------------------|

1:45
G|-------------------------------------------------|
D|-------------------5----------7---7----7---------|
A|-------5-5--7-8--8---8-7-7--7------8-7-----------| x9 (i think)
E|-------------------------------------------------|

2:38
G|---------------------------------------------------|
D|-----------------5-5-----------7---7-----5---------|
A|-------5--5-5-5------8-7--7--7-------8-7-----------| x2
E|---------------------------------------------------|

2:53
G|-------------------------------------------------|
D|-------------------------------------------------|
A|-------5~-------5~------5~------5~---------------|
E|------------5-8-----5-8-----5-8------------------|

3:05 Rest

3:11
G|-------------------------------------------------|
D|-------------------5----------7---7----7---------|
A|-------5-5--7-8--8---8-7-7--7------8-7-----------|
E|-------------------------------------------------|

Rest until end

can play D at end with bass drum if you want but its not on the recording

Not too hard to play really. alot of repetition but a very cool bassline
to learn. Enjoy
If you think some is wrong or have any corrections or questions
email:rossgarwood@hotmail.co.uk

Submitted by: Lola (Loved the tabs, spreading the good word!)

Almost there ...

Sign in to get your own page with links to favourite songs and more. You are just one click away...

Login with Facebook Login with Google