Log in

One click and you are in

Login with Facebook Login with Google

Why sign up and log in

Guitar Tabs Explorer
Madball chords for Friend or foe

Guitar chords

COVERED - 14 - MADBALL - Friend or foe
            Want more? http://perso.club-internet.fr/blinders/
            HE! It's all my work! Don't touch


DROP A chord diagramD MajorD   \=3Dslide down
INTRO
|-6-6-6-4-4-4-9-9-9-6-6-6-11-11-11-8---8-8-8-8-8-8-8-8-8-8-8-8-8-8-8-|
|-6-6-6-4-4-4-9-9-9-6-6-6-11-11-11-8---8-8-8-8-8-8-8-8-8-8-8-8-8-8-8-|
|-6-6-6-4-4-4-9-9-9-6-6-6-11-11-11-8---8-8-8-8-8-8-8-8-8-8-8-8-8-8-8-|
pm-----------------------------------|

|-6-6-6-4-4-4-9-9-9-6-6-6-11-11-11-8----------------------------|
|-6-6-6-4-4-4-9-9-9-6-6-6-11-11-11-8----------------------------|
|-6-6-6-4-4-4-9-9-9-6-6-6-11-11-11-8---88888-8-88888-8-88888888-|   2x
pm----------------------------------|

|-6-6-6-4-4-4-9-9-9-6-6-6-11-11-11-8---|
|-6-6-6-4-4-4-9-9-9-6-6-6-11-11-11-8---|
|-6-6-6-4-4-4-9-9-9-6-6-6-11-11-11-8---|

RIFF1
|-88888888-88888888-11-6-4-6-4-6-|
|-88888888-88888888-11-6-4-6-4-6-|
|-88888888-88888888-11-6-4-6-4-6-|

RIFF2
|-9999-8888-9999-88---|
|-9999-8888-9999-88---| 4x
|-9999-8888-9999-88---|


then
|-11-6-4-6-4-6-|
|-11-6-4-6-4-6-|
|-11-6-4-6-4-6-|


FINAL
|-8---|--8-8-|--8-8-|--8-|-11-6-4-6-4-6-8\-|
|-8---|--8-8-|--8-8-|--8-|-11-6-4-6-4-6-8\-|
|-8---|--8-8-|--8-8-|--8-|-11-6-4-6-4-6-8\-|

STRUCTURE


INTRO
RIFF1 5x
RIFF2 1x
RIFF1 4x
RIFF2 1x
FINAL

Almost there ...

Sign in to get your own page with links to favourite songs and more. You are just one click away...

Login with Facebook Login with Google