Log in

One click and you are in

Login with Facebook Login with Google

Why sign up and log in

Guitar Tabs Explorer
Madasun chords for Walking on water

Guitar chords

Album: The way it is
Tabbed by: Colin Boylan (HairyJapeneseGoldfish)

This song was a song i always wanted to know how to play but
nobody had made the tab out so i gave it a go myself. Theres
a really cool gitar lead at the start and verses it so funky.
Neways there are 2 guitars lead and rhythm. Lead part was hard
to pick up but here's the audible you will recognise it.

Key________________
|~ = vibratum       |
|p = pull off       |
|___________________|

INTRO/VERSE : Lead !!!
e|-------------------------||-----------------------
b|--------11---------------||-----------------------
g|-----11----11-p-10---10~-||-8-8-p-6---------------
d|--11---------------11----||----------8-6----------
a|-------------------------||-----------------------
A chord diagramE MajorE|-------------------------||---------------7~------


INTRO/VERSE : Rhythm (sounds like whats my age by blink hmm)
   A chord diagramF#F#        A chord diagramC#C#                A chord diagramEb MajorEb       A chord diagramBB
e|-------------------------||-------------------------
b|-------------------------||-------------------------
g|-----------6----6--------||--8---8----4---4---------
d|-4---4-----6----6--------||--8---8----4---4---------
a|-4---4-----4----4--------||--6---6----2---2---------
A chord diagramE MajorE|-2---2-------------------||-------------------------

AFTER VERSE/PRE CHORUS
e|--------------------------------------------------
b|--------------------------------------------------
g|---4---------------6-------------------------------
d|---4-ring--4-------6-ring---4----------------------
a|---2-------4-ring--4--------4-choke----------------
A chord diagramE MajorE|-----------2----------------2---------------------


CHORUS :
e|--------------------------------------------------
b|--------------------------------------------------
g|-----------6--6-----8---8-----4---4---------------
d|--4---4----6--6-----8---8-----4---4--------------
a|--4---4----4--4-----6---6-----2---2---------------
A chord diagramE MajorE|--2---2-------------------------------------------

And that it! so get a friend and get him to play rhythm
its sounds better

Almost there ...

Sign in to get your own page with links to favourite songs and more. You are just one click away...

Login with Facebook Login with Google