Log in

One click and you are in

Login with Facebook Login with Google

Why sign up and log in

Guitar Tabs Explorer
Kevin Macleod guitar tabs for Retrofuture

Solo tabs

-------------------------------------------------------------------------------
                             RETROFUTURE - Kevin MacLeod
-------------------------------------------------------------------------------


Tuning: A chord diagramE MajorE A chord diagramA majorA A chord diagramD MajorD A chord diagramG MajorG (Standard)

Main Parts:                                                                      Variations:


G|---------------------------------|----------------------------------------|
D|---------------------------------|--------------0-2---0-2---0-2---0-------|
A|----------0-2--5----------0-2--5-|---------0-2----------------------2-0---|
E|-0--0--3---------0--0--3---------|-0--0--3------------------------------3-|

G|---------------------------------|----------------------------------------|   ( ---------| )
D|---------------------------------|--------------0-2---0-2---0-2---0-----2-|   ( -0-------| )
A|----------0-2--5----------0-2--5-|---------0-2----------------------2-----|   ( ---2---2-| )
E|-0--0--3---------0--0--3---------|-0--0--3--------------------------------|   ( ---------| )


G|---------------------------------|----------------------------------------|   ( ---------------| )
D|---------------------------------|-2----2----2----------------------------|   ( ---------------| )
A|-0-----0-----------0-2---0-------|----------------2-----2---0-------------|   ( -0-------------| )
E|-------------0-3-----------------|--------------------3-------3----0------|   ( ---3---3---0---| )

G|---------------------------------|----------------------------------------|
D|---------------------------------|-2----2----2-----2----------------------|
A|-0-----0-----------0-2---0-------|----------------------------------------|

Almost there ...

Sign in to get your own page with links to favourite songs and more. You are just one click away...

Login with Facebook Login with Google