Log in

One click and you are in

Login with Facebook Login with Google

Why sign up and log in

Guitar Tabs Explorer
Kevin Macleod guitar tabs for Cold funk

Guitar tabs with lyrics

Guitar 1 (A chord diagramE MajorE A chord diagramA majorA A chord diagramD MajorD A chord diagramG MajorG A chord diagramBB e) - 'Acoustic, Rhythm'
Guitar 2 (A chord diagramE MajorE A chord diagramA majorA A chord diagramD MajorD A chord diagramG MajorG A chord diagramBB e) - 'Clean, Lead'

- This track is instrumental and doesn't really have any verses or choruses so I've marked each
part with timestamps.
- This tab represents a slightly simpler and more generalised way of playing the song. Feel free
to mess around with it.

(0:00)
  Gtr 1
    A chord diagramE MajorE   A chord diagramE MajorE   A chord diagramE MajorE   S S S S A chord diagramE MajorE   A chord diagramE MajorE   A chord diagramE MajorE        A chord diagramE MajorE   A chord diagramE MajorE   A chord diagramE MajorE   S S S S A chord diagramE MajorE   A chord diagramE MajorE   A chord diagramE MajorE
e|--------------x-x-x-x-----1---x-----|--------------x-x-x-x-----1---x-----|
B|----------4---x-x-x-x-----1---x-----|----------4---x-x-x-x-----1---x-----|
G|----------5---x-x-x-x-----1---x-----|----------5---x-x-x-x-----1---x-----|
D|------5---5---x-x-x-x-----3---x-----|------5---5---x-x-x-x-----3---x-----|
A|--3---3---3---x-x-x-x-----3---x-----|--3---3---3---x-x-x-x-----3---x-----|
E|--------------x-x-x-x-1---1---x-----|--------------x-x-x-x-1---1---x-----|
PM                      .             |                      .             |

    Q       A chord diagramE MajorE   S S S S A chord diagramE MajorE   A chord diagramE MajorE   A chord diagramE MajorE        A chord diagramE MajorE   A chord diagramE MajorE   A chord diagramE MajorE   S S S S A chord diagramE MajorE   A chord diagramE MajorE   A chord diagramE MajorE
e|--------------x-x-x-x-----4---x-----|----------3---x-x-x-x-----3---x-----|
B|--4-------4---x-x-x-x-----4---x-----|----------3---x-x-x-x-----3---x-----|
G|--5-------5---x-x-x-x-----5---x-----|----------4---x-x-x-x-----4---x-----|
D|--5-------5---x-x-x-x-----6---x-----|----------5---x-x-x-x-----5---x-----|
A|--3-------3---x-x-x-x-----6---x-----|----------5---x-x-x-x-----5---x-----|
E|--------------x-x-x-x-4---4---x-----|--3---3---3---x-x-x-x-3---3---x-----|
PM                      .             |  .   .               .             |

    A chord diagramE MajorE   A chord diagramE MajorE   A chord diagramE MajorE   S S S S A chord diagramE MajorE   A chord diagramE MajorE   A chord diagramE MajorE        A chord diagramE MajorE   A chord diagramE MajorE   A chord diagramE MajorE   S S S S A chord diagramE MajorE   A chord diagramE MajorE   A chord diagramE MajorE
e|--------------x-x-x-x-----1---x-----|--------------x-x-x-x-----1---x-----|
B|----------4---x-x-x-x-----1---x-----|----------4---x-x-x-x-----1---x-----|
G|----------5---x-x-x-x-----1---x-----|----------5---x-x-x-x-----1---x-----|
D|------5---5---x-x-x-x-----3---x-----|------5---5---x-x-x-x-----3---x-----|
A|--3---3---3---x-x-x-x-----3---x-----|--3---3---3---x-x-x-x-----3---x-----|
E|--------------x-x-x-x-1---1---x-----|--------------x-x-x-x-1---1---x-----|
PM                      .             |                      .             |

    A chord diagramE MajorE   A chord diagramE MajorE   A chord diagramE MajorE   S S S S A chord diagramE MajorE   A chord diagramE MajorE   A chord diagramE MajorE        A chord diagramE MajorE   A chord diagramE MajorE   A chord diagramE MajorE   S S S S S S A chord diagramE MajorE   A chord diagramE MajorE
e|--------------x-x-x-x-----4---x-----|----------3---x-x-----3-3-3---x-----|
B|----------4---x-x-x-x-----4---x-----|----------3---x-x---3-3-3-3---x-----|
G|----------5---x-x-x-x-----5---x-----|----------4---x-x---4-4-4-4---x-----|
D|------5---5---x-x-x-x-----6---x-----|----------5---x-x---5-5-5-5---x-----|
A|--3---3---3---x-x-x-x-----6---x-----|----------5---x-x---5-5-5-5---x-----|
E|--------------x-x-x-x-4---4---x-----|--3---3---3---x-x-3-3-3-3-3---x-----|
PM                      .             |  .   .                             |

(0:18)
  Gtr 1
    A chord diagramE MajorE   A chord diagramE MajorE   A chord diagramE MajorE   S S S S A chord diagramE MajorE   A chord diagramE MajorE   A chord diagramE MajorE        A chord diagramE MajorE   A chord diagramE MajorE   A chord diagramE MajorE   S S S S A chord diagramE MajorE   A chord diagramE MajorE   A chord diagramE MajorE
e|--------------x-x-x-x-----1---x-----|--------------x-x-x-x-----1---x-----|
B|----------4---x-x-x-x-----1---x-----|----------4---x-x-x-x-----1---x-----|
G|----------5---x-x-x-x-----1---x-----|----------5---x-x-x-x-----1---x-----|
D|------5---5---x-x-x-x-----3---x-----|------5---5---x-x-x-x-----3---x-----|
A|--3---3---3---x-x-x-x-----3---x-----|--3---3---3---x-x-x-x-----3---x-----|
E|--------------x-x-x-x-1---1---x-----|--------------x-x-x-x-1---1---x-----|
PM                      .             |                      .             |
 |Gtr 2                               |                                    |
 |  S S S S S(S)S S(S)S S(S)S(S)S S   |  S S S S S(S)S S(S)S S S S S S S   |
e|------------------------------------|------------------------------------|
B|--7h8-8-8-8---8-8---8-8---8---8-8---|--7h8-8-8-8---8-8---8-8-8-8-8-8-8---|
G|------------------------------------|------------------------------------|
D|------------------------------------|------------------------------------|
A|------------------------------------|------------------------------------|
E|------------------------------------|------------------------------------|

    A chord diagramE MajorE   A chord diagramE MajorE   A chord diagramE MajorE   S S S S A chord diagramE MajorE   A chord diagramE MajorE   A chord diagramE MajorE        A chord diagramE MajorE   A chord diagramE MajorE   A chord diagramE MajorE   S S S S S S A chord diagramE MajorE   A chord diagramE MajorE
e|--------------x-x-x-x-----4---x-----|--3---x---3---x-x-3-3-3-3-3---x-----|
B|----------4---x-x-x-x-----4---x-----|--3---x---3---x-x-3-3-3-3-3---x-----|
G|----------5---x-x-x-x-----5---x-----|--4---x---4---x-x-4-4-4-4-4---x-----|
D|------5---5---x-x-x-x-----6---x-----|--5---x---5---x-x-5-5-5-5-5---x-----|
A|--3---3---3---x-x-x-x-----6---x-----|--5---x---5---x-x-5-5-5-5-5---x-----|
E|--------------x-x-x-x-4---4---x-----|--3---x---3---x-x-3-3-3-3-3---x-----|
PM                      .             |                                    |
 |                                    |                                    |
 |  S S S S S(S)S S(S)S S(S)S(S)S S   |  S S S S S(S)S S(S)S S S S(S)S(S)  |
e|------------------------------------|------------------------------------|
B|--7h8-8-8-8---8-8---8-8---8---8-8---|--7h8-8-8-8---8-8---8-8-8-8---8-----|
G|------------------------------------|------------------------------------|
D|------------------------------------|------------------------------------|
A|------------------------------------|------------------------------------|
E|------------------------------------|------------------------------------|

    Q       A chord diagramE MajorE   S S S S A chord diagramE MajorE   A chord diagramE MajorE   A chord diagramE MajorE        A chord diagramE MajorE   A chord diagramE MajorE   A chord diagramE MajorE   S S S S A chord diagramE MajorE   A chord diagramE MajorE   A chord diagramE MajorE
e|--------------x-x-x-x-----1---x-----|--------------x-x-x-x-----1---x-----|
B|--4-------4---x-x-x-x-----1---x-----|----------4---x-x-x-x-----1---x-----|
G|--5-------5---x-x-x-x-----1---x-----|----------5---x-x-x-x-----1---x-----|
D|--5-------5---x-x-x-x-----3---x-----|------5---5---x-x-x-x-----3---x-----|
A|--3-------3---x-x-x-x-----3---x-----|--3---3---3---x-x-x-x-----3---x-----|
E|--------------x-x-x-x-1---1---x-----|--------------x-x-x-x-1---1---x-----|
PM                      .             |                      .             |
 |                                    |                                    |
 |  S S S S S(S)S S(S)S S(S)S(S)S S   |  S S S S S(S)S S(S)S S S S S S S   |
e|------------------------------------|------------------------------------|
B|--7h8-8-8-8---8-8---8-8---8---8-8---|--7h8-8-8-8---8-8---8-8-8-8-8-8-8---|
G|------------------------------------|------------------------------------|
D|------------------------------------|------------------------------------|
A|------------------------------------|------------------------------------|
E|------------------------------------|------------------------------------|

    A chord diagramE MajorE   A chord diagramE MajorE   A chord diagramE MajorE   S S S S A chord diagramE MajorE   A chord diagramE MajorE   A chord diagramE MajorE        A chord diagramE MajorE   A chord diagramE MajorE   A chord diagramE MajorE   S S S S A chord diagramE MajorE   A chord diagramE MajorE   A chord diagramE MajorE
e|--------------x-x-x-x-----1---x-----|----------3---x-x-x-x-----3---x-----|
B|----------4---x-x-x-x-----1---x-----|----------3---x-x-x-x-----3---x-----|
G|----------5---x-x-x-x-----1---x-----|----------4---x-x-x-x-----4---x-----|
D|------5---5---x-x-x-x-----3---x-----|----------5---x-x-x-x-----5---x-----|
A|--3---3---3---x-x-x-x-----3---x-----|----------5---x-x-x-x-----5---x-----|
E|--------------x-x-x-x-1---1---x-----|--3---3---3---x-x-x-x-3---3---x-----|
PM                      .             |  .   .               .             |
 |                                    |                                    |
 |  S S S S S(S)S S(S)S S(S)S(S)S S   |  S S S S S(S)S S(S)S S S S S S S   |
e|------------------------------------|------------------------------------|
B|--7h8-8-8-8---8-8---8-8---8---8-8---|--7h8-8-8-8---8-8---8-8-8-8-8-8-8---|
G|------------------------------------|------------------------------------|
D|------------------------------------|------------------------------------|
A|------------------------------------|------------------------------------|
E|------------------------------------|------------------------------------|

    A chord diagramE MajorE   A chord diagramE MajorE   A chord diagramE MajorE   S S S S A chord diagramE MajorE   A chord diagramE MajorE   A chord diagramE MajorE        A chord diagramE MajorE   A chord diagramE MajorE   A chord diagramE MajorE   S S S S A chord diagramE MajorE   A chord diagramE MajorE   A chord diagramE MajorE
e|--------------x-x-x-x-----1---x-----|--------------x-x-x-x-----1---x-----|
B|o---------4---x-x-x-x-----1---x-----|----------4---x-x-x-x-----1---x-----|
G|----------5---x-x-x-x-----1---x-----|----------5---x-x-x-x-----1---x-----|
D|------5---5---x-x-x-x-----3---x-----|------5---5---x-x-x-x-----3---x-----|
A|o-3---3---3---x-x-x-x-----3---x-----|--3---3---3---x-x-x-x-----3---x-----|
E|--------------x-x-x-x-1---1---x-----|--------------x-x-x-x-1---1---x-----|
PM                      .             |                      .             |
 |                                    |                                    |
 |  S S S S S(S)S S(S)S S(S)S(S)S S   |  S S S S S(S)S S(S)S S S S S S S   |
e|------------------------------------|------------------------------------|
B|o-7h8-8-8-8---8-8---8-8---8---8-8---|--7h8-8-8-8---8-8---8-8-8-8-8-8-8---|
G|------------------------------------|------------------------------------|
D|------------------------------------|------------------------------------|
A|o-----------------------------------|------------------------------------|
E|------------------------------------|------------------------------------|

    Q       A chord diagramE MajorE   S S S S A chord diagramE MajorE   A chord diagramE MajorE   A chord diagramE MajorE        A chord diagramE MajorE   A chord diagramE MajorE   A chord diagramE MajorE   S S S S A chord diagramE MajorE   A chord diagramE MajorE   A chord diagramE MajorE     (x2)
e|--------------x-x-x-x-----4---x-----|----------3---x-x-x-x-----3---x-----|
B|--4-------4---x-x-x-x-----4---x-----|----------3---x-x-x-x-----3---x----o|
G|--5-------5---x-x-x-x-----5---x-----|----------4---x-x-x-x-----4---x-----|
D|--5-------5---x-x-x-x-----6---x-----|----------5---x-x-x-x-----5---x-----|
A|--3-------3---x-x-x-x-----6---x-----|----------5---x-x-x-x-----5---x----o|
E|--------------x-x-x-x-4---4---x-----|--3---3---3---x-x-x-x-3---3---x-----|
PM                      .             |  .   .               .             |
 |                                    |                                    |
 |  S S S S S(S)S S(S)S S(S)S(S)S S   |  S S S S S(S)S S(S)S S S S S S S   |
e|------------------------------------|------------------------------------|
B|--7h8-8-8-8---8-8---8-8---8---8-8---|--7h8-8-8-8---8-8---8-8-8-8-8-8-8--o|
G|------------------------------------|------------------------------------|
D|------------------------------------|------------------------------------|
A|------------------------------------|-----------------------------------o|
E|------------------------------------|------------------------------------|

(0:52)
  Gtr 1
    A chord diagramE MajorE   A chord diagramE MajorE   A chord diagramE MajorE   S S S S A chord diagramE MajorE   A chord diagramE MajorE   A chord diagramE MajorE        A chord diagramE MajorE   A chord diagramE MajorE   A chord diagramE MajorE   S S S S A chord diagramE MajorE   A chord diagramE MajorE   A chord diagramE MajorE
e|--------------x-x-x-x-----1---x-----|--------------x-x-x-x-----1---x-----|
B|----------4---x-x-x-x-----1---x-----|----------4---x-x-x-x-----1---x-----|
G|----------5---x-x-x-x-----1---x-----|----------5---x-x-x-x-----1---x-----|
D|------5---5---x-x-x-x-----3---x-----|------5---5---x-x-x-x-----3---x-----|
A|--3---3---3---x-x-x-x-----3---x-----|--3---3---3---x-x-x-x-----3---x-----|
E|--------------x-x-x-x-1---1---x-----|--------------x-x-x-x-1---1---x-----|
PM                      .             |                      .             |

    A chord diagramE MajorE   A chord diagramE MajorE   A chord diagramE MajorE   S S S S A chord diagramE MajorE   A chord diagramE MajorE   A chord diagramE MajorE        A chord diagramE MajorE   A chord diagramE MajorE   A chord diagramE MajorE   S S S S S S A chord diagramE MajorE   A chord diagramE MajorE
e|--------------x-x-x-x-----1---x-----|----------3---x-x-x---3-3-3---x-----|
B|----------4---x-x-x-x-----1---x-----|----------3---x-x-x-3-3-3-3---x-----|
G|----------5---x-x-x-x-----1---x-----|----------4---x-x-x-4-4-4-4---x-----|
D|------5---5---x-x-x-x-----3---x-----|----------5---x-x-x-5-5-5-5---x-----|
A|--3---3---3---x-x-x-x-----3---x-----|----------5---x-x-x-5-5-5-5---x-----|
E|--------------x-x-x-x-1---1---x-----|--3---3---3---x-x-x-3-3-3-3---x-----|
PM                      .             |  .   .                             |

    A chord diagramE MajorE   A chord diagramE MajorE   A chord diagramE MajorE   S S S S A chord diagramE MajorE   A chord diagramE MajorE   A chord diagramE MajorE        A chord diagramE MajorE   A chord diagramE MajorE   A chord diagramE MajorE   S S S S A chord diagramE MajorE   A chord diagramE MajorE   A chord diagramE MajorE
e|--------------x-x-x-x-----1---x-----|--------------x-x-x-x-----1---x-----|
B|----------4---x-x-x-x-----1---x-----|----------4---x-x-x-x-----1---x-----|
G|----------5---x-x-x-x-----1---x-----|----------5---x-x-x-x-----1---x-----|
D|------5---5---x-x-x-x-----3---x-----|------5---5---x-x-x-x-----3---x-----|
A|--3---3---3---x-x-x-x-----3---x-----|--3---3---3---x-x-x-x-----3---x-----|
E|--------------x-x-x-x-1---1---x-----|--------------x-x-x-x-1---1---x-----|
PM                      .             |                      .             |

    A chord diagramE MajorE   A chord diagramE MajorE   A chord diagramE MajorE   S S S S A chord diagramE MajorE   A chord diagramE MajorE   A chord diagramE MajorE        A chord diagramE MajorE   A chord diagramE MajorE   A chord diagramE MajorE   S S S S S S A chord diagramE MajorE   A chord diagramE MajorE
e|--------------x-x-x-x-----1---x-----|--3---x---3---x-x-3-3-3-3-3---x-----|
B|----------4---x-x-x-x-----1---x-----|--3---x---3---x-x-3-3-3-3-3---x-----|
G|----------5---x-x-x-x-----1---x-----|--4---x---4---x-x-4-4-4-4-4---x-----|
D|------5---5---x-x-x-x-----3---x-----|--5---x---5---x-x-5-5-5-5-5---x-----|
A|--3---3---3---x-x-x-x-----3---x-----|--5---x---5---x-x-5-5-5-5-5---x-----|
E|--------------x-x-x-x-1---1---x-----|--3---x---3---x-x-3-3-3-3-3---x-----|
PM                      .             |                                    |

    Q       A chord diagramE MajorE   S S S S A chord diagramE MajorE   A chord diagramE MajorE   A chord diagramE MajorE        A chord diagramE MajorE   A chord diagramE MajorE   A chord diagramE MajorE   S S S S A chord diagramE MajorE   A chord diagramE MajorE   A chord diagramE MajorE
e|--------------x-x-x-x-----1---x-----|--------------x-x-x-x-----1---x-----|
B|--4-------4---x-x-x-x-----1---x-----|----------4---x-x-x-x-----1---x-----|
G|--5-------5---x-x-x-x-----1---x-----|----------5---x-x-x-x-----1---x-----|
D|--5-------5---x-x-x-x-----3---x-----|------5---5---x-x-x-x-----3---x-----|
A|--3-------3---x-x-x-x-----3---x-----|--3---3---3---x-x-x-x-----3---x-----|
E|--------------x-x-x-x-1---1---x-----|--------------x-x-x-x-1---1---x-----|
PM                      .             |                      .             |

    A chord diagramE MajorE   A chord diagramE MajorE   A chord diagramE MajorE   S S S S A chord diagramE MajorE   A chord diagramE MajorE   A chord diagramE MajorE        A chord diagramE MajorE   A chord diagramE MajorE   A chord diagramE MajorE   S S S S A chord diagramE MajorE   A chord diagramE MajorE   A chord diagramE MajorE
e|--------------x-x-x-x-----1---x-----|----------3---x-x-x-x-----3---x-----|
B|----------4---x-x-x-x-----1---x-----|----------3---x-x-x-x-----3---x-----|
G|----------5---x-x-x-x-----1---x-----|----------4---x-x-x-x-----4---x-----|
D|------5---5---x-x-x-x-----3---x-----|----------5---x-x-x-x-----5---x-----|
A|--3---3---3---x-x-x-x-----3---x-----|----------5---x-x-x-x-----5---x-----|
E|--------------x-x-x-x-1---1---x-----|--3---3---3---x-x-x-x-3---3---x-----|
PM                      .             |  .   .               .             |

    A chord diagramE MajorE   A chord diagramE MajorE   A chord diagramE MajorE   S S S S A chord diagramE MajorE   A chord diagramE MajorE   A chord diagramE MajorE        A chord diagramE MajorE   A chord diagramE MajorE   A chord diagramE MajorE   S S S S A chord diagramE MajorE   A chord diagramE MajorE   A chord diagramE MajorE
e|--------------x-x-x-x-----1---x-----|--------------x-x-x-x-----1---x-----|
B|----------4---x-x-x-x-----1---x-----|----------4---x-x-x-x-----1---x-----|
G|----------5---x-x-x-x-----1---x-----|----------5---x-x-x-x-----1---x-----|
D|------5---5---x-x-x-x-----3---x-----|------5---5---x-x-x-x-----3---x-----|
A|--3---3---3---x-x-x-x-----3---x-----|--3---3---3---x-x-x-x-----3---x-----|
E|--------------x-x-x-x-1---1---x-----|--------------x-x-x-x-1---1---x-----|
PM                      .             |                      .             |

    Q       A chord diagramE MajorE   S S S S A chord diagramE MajorE   A chord diagramE MajorE   A chord diagramE MajorE        A chord diagramE MajorE   A chord diagramE MajorE   A chord diagramE MajorE   S S S S A chord diagramE MajorE   A chord diagramE MajorE   A chord diagramE MajorE
e|--------------x-x-x-x-----4---x-----|----------3---x-x-x-x-----3---x-----|
B|--4-------4---x-x-x-x-----4---x-----|----------3---x-x-x-x-----3---x-----|
G|--5-------5---x-x-x-x-----5---x-----|----------4---x-x-x-x-----4---x-----|
D|--5-------5---x-x-x-x-----6---x-----|----------5---x-x-x-x-----5---x-----|
A|--3-------3---x-x-x-x-----6---x-----|----------5---x-x-x-x-----5---x-----|
E|--------------x-x-x-x-4---4---x-----|--3---3---3---x-x-x-x-3---3---x-----|
PM                      .             |  .   .               .             |

    A chord diagramE MajorE   A chord diagramE MajorE   A chord diagramE MajorE   S S S S A chord diagramE MajorE   A chord diagramE MajorE   A chord diagramE MajorE        A chord diagramE MajorE   A chord diagramE MajorE   A chord diagramE MajorE   S S S S A chord diagramE MajorE   A chord diagramE MajorE   A chord diagramE MajorE
e|--------------x-x-x-x-----1---x-----|--------------x-x-x-x-----1---x-----|
B|----------4---x-x-x-x-----1---x-----|----------4---x-x-x-x-----1---x-----|
G|----------5---x-x-x-x-----1---x-----|----------5---x-x-x-x-----1---x-----|
D|------5---5---x-x-x-x-----3---x-----|------5---5---x-x-x-x-----3---x-----|
A|--3---3---3---x-x-x-x-----3---x-----|--3---3---3---x-x-x-x-----3---x-----|
E|--------------x-x-x-x-1---1---x-----|--------------x-x-x-x-1---1---x-----|
PM                      .             |                      .             |

    A chord diagramE MajorE   A chord diagramE MajorE   A chord diagramE MajorE   S S S S A chord diagramE MajorE   A chord diagramE MajorE   A chord diagramE MajorE        A chord diagramE MajorE   A chord diagramE MajorE   A chord diagramE MajorE   S S S S S S A chord diagramE MajorE   A chord diagramE MajorE
e|--------------x-x-x-x-----1---x-----|----------3---x-x-x---3-3-3---x-----|
B|----------4---x-x-x-x-----1---x-----|----------3---x-x-x-3-3-3-3---x-----|
G|----------5---x-x-x-x-----1---x-----|----------4---x-x-x-4-4-4-4---x-----|
D|------5---5---x-x-x-x-----3---x-----|----------5---x-x-x-5-5-5-5---x-----|
A|--3---3---3---x-x-x-x-----3---x-----|----------5---x-x-x-5-5-5-5---x-----|
E|--------------x-x-x-x-1---1---x-----|--3---3---3---x-x-x-3-3-3-3---x-----|
PM                      .             |  .   .                             |

    A chord diagramE MajorE   A chord diagramE MajorE   A chord diagramE MajorE   S S S S A chord diagramE MajorE   A chord diagramE MajorE   A chord diagramE MajorE        A chord diagramE MajorE   A chord diagramE MajorE   A chord diagramE MajorE   S S S S A chord diagramE MajorE   A chord diagramE MajorE   A chord diagramE MajorE
e|--------------x-x-x-x-----1---x-----|--------------x-x-x-x-----1---x-----|
B|----------4---x-x-x-x-----1---x-----|----------4---x-x-x-x-----1---x-----|
G|----------5---x-x-x-x-----1---x-----|----------5---x-x-x-x-----1---x-----|
D|------5---5---x-x-x-x-----3---x-----|------5---5---x-x-x-x-----3---x-----|
A|--3---3---3---x-x-x-x-----3---x-----|--3---3---3---x-x-x-x-----3---x-----|
E|--------------x-x-x-x-1---1---x-----|--------------x-x-x-x-1---1---x-----|

    A chord diagramE MajorE   A chord diagramE MajorE   A chord diagramE MajorE   S S S S A chord diagramE MajorE   A chord diagramE MajorE   A chord diagramE MajorE        A chord diagramE MajorE   A chord diagramE MajorE   A chord diagramE MajorE   S S S S S S A chord diagramE MajorE   A chord diagramE MajorE
e|--------------x-x-x-x-----1---x-----|--3---x---3---x-x-3-3-3-3-3---x-----|
B|----------4---x-x-x-x-----1---x-----|--3---x---3---x-x-3-3-3-3-3---x-----|
G|----------5---x-x-x-x-----1---x-----|--4---x---4---x-x-4-4-4-4-4---x-----|
D|------5---5---x-x-x-x-----3---x-----|--5---x---5---x-x-5-5-5-5-5---x-----|
A|--3---3---3---x-x-x-x-----3---x-----|--5---x---5---x-x-5-5-5-5-5---x-----|
E|--------------x-x-x-x-1---1---x-----|--3---x---3---x-x-3-3-3-3-3---x-----|
PM                      .             |                                    |

    A chord diagramE MajorE   A chord diagramE MajorE   A chord diagramE MajorE   S S S S A chord diagramE MajorE   A chord diagramE MajorE   A chord diagramE MajorE        A chord diagramE MajorE   A chord diagramE MajorE   A chord diagramE MajorE   S S S S A chord diagramE MajorE   A chord diagramE MajorE   A chord diagramE MajorE
e|--------------x-x-x-x-----1---x-----|--------------x-x-x-x-----1---x-----|
B|----------4---x-x-x-x-----1---x-----|----------4---x-x-x-x-----1---x-----|
G|----------5---x-x-x-x-----1---x-----|----------5---x-x-x-x-----1---x-----|
D|------5---5---x-x-x-x-----3---x-----|------5---5---x-x-x-x-----3---x-----|
A|--3---3---3---x-x-x-x-----3---x-----|--3---3---3---x-x-x-x-----3---x-----|
E|--------------x-x-x-x-1---1---x-----|--------------x-x-x-x-1---1---x-----|
PM                      .             |                      .             |

    A chord diagramE MajorE   A chord diagramE MajorE   A chord diagramE MajorE   S S S S A chord diagramE MajorE   A chord diagramE MajorE   A chord diagramE MajorE        A chord diagramE MajorE   A chord diagramE MajorE   A chord diagramE MajorE   S S S S A chord diagramE MajorE   A chord diagramE MajorE   A chord diagramE MajorE
e|--------------x-x-x-x-----1---x-----|----------3---x-x-x-x-----3---x-----|
B|----------4---x-x-x-x-----1---x-----|----------3---x-x-x-x-----3---x-----|
G|----------5---x-x-x-x-----1---x-----|----------4---x-x-x-x-----4---x-----|
D|------5---5---x-x-x-x-----3---x-----|----------5---x-x-x-x-----5---x-----|
A|--3---3---3---x-x-x-x-----3---x-----|----------5---x-x-x-x-----5---x-----|
E|--------------x-x-x-x-1---1---x-----|--3---3---3---x-x-x-x-3---3---x-----|
PM                      .             |  .   .               .             |

(1:52)
  Gtr 1
    Q       A chord diagramE MajorE   S S S S S S A chord diagramE MajorE   S S      A chord diagramE MajorE   A chord diagramE MajorE   A chord diagramE MajorE   S S S S S S A chord diagramE MajorE   S S
e|--1-------1---x-x-1-1-1-1-1---x-x---|------x-------x-x-------------x-x---|
B|--1-------1---x-x-1-1-1-1-1---x-x---|--4---x---4---x-x-4-4-4-4-4---x-x---|
G|--1-------1---x-x-1-1-1-1-1---x-x---|--5---x---5---x-x-5-5-5-5-5---x-x---|
D|--3-------3---x-x-3-3-3-3-3---x-x---|--5---x---5---x-x-5-5-5-5-5---x-x---|
A|--3-------3---x-x-3-3-3-3-3---x-x---|--3---x---3---x-x-3-3-3-3-3---x-x---|
E|--1-------1---x-x-1-1-1-1-1---x-x---|------x-------x-x-------------x-x---|

    A chord diagramE MajorE   A chord diagramE MajorE   A chord diagramE MajorE   S S S S S S A chord diagramE MajorE   S S      A chord diagramE MajorE   A chord diagramE MajorE   A chord diagramE MajorE   S S S S A chord diagramE MajorE   A chord diagramE MajorE   S S
e|--1---x---1---x-x-1-1-1-1-1---x-x---|------x-------x-x-x-x-x-------x-x---|
B|--1---x---1---x-x-1-1-1-1-1---x-x---|--4---x---4---x-x-x-x-x---4---x-x---|
G|--1---x---1---x-x-1-1-1-1-1---x-x---|--5---x---5---x-x-x-x-x---5---x-x---|
D|--3---x---3---x-x-3-3-3-3-3---x-x---|--5---x---5---x-x-x-x-x---5---x-x---|
A|--3---x---3---x-x-3-3-3-3-3---x-x---|--3---x---3---x-x-x-x-x---3---x-x---|
E|--1---x---1---x-x-1-1-1-1-1---x-x---|------x-------x-x-x-x-x-------x-x---|

    A chord diagramE MajorE   A chord diagramE MajorE   A chord diagramE MajorE   S S S S S S A chord diagramE MajorE   S S      A chord diagramE MajorE   A chord diagramE MajorE   A chord diagramE MajorE   S S S S S S A chord diagramE MajorE   S S
e|--1---x---1---x-x-1-1-1-1-1---x-x---|--x---x-------x-x-------------x-x---|
B|--1---x---1---x-x-1-1-1-1-1---x-x---|--x---x---4---x-x-4-4-4-4-4---x-x---|
G|--2---x---2---x-x-2-2-2-2-2---x-x---|--x---x---5---x-x-5-5-5-5-5---x-x---|
D|--3---x---3---x-x-3-3-3-3-3---x-x---|--x---x---5---x-x-5-5-5-5-5---x-x---|
A|--3---x---3---x-x-3-3-3-3-3---x-x---|--x---x---3---x-x-3-3-3-3-3---x-x---|
E|--1---x---1---x-x-1-1-1-1-1---x-x---|--x---x-------x-x-------------x-x---|

    A chord diagramE MajorE   A chord diagramE MajorE   A chord diagramE MajorE   S S S S S S A chord diagramE MajorE   S S      A chord diagramE MajorE   A chord diagramE MajorE   A chord diagramE MajorE   S S S S S S A chord diagramE MajorE   S
e|------x-------x-x-------------x-x---|------x-------x-x-------------x-----|
B|--8---x---8---x-x-8-8-8-8-8---x-x---|--7---x---7---x-x-7-7-7-7-7---x-----|
G|--8---x---8---x-x-8-8-8-8-8---x-x---|--7---x---7---x-x-7-7-7-7-7---x-----|
D|--8---x---8---x-x-8-8-8-8-8---x-x---|--7---x---7---x-x-7-7-7-7-7---x-----|
A|--6---x---6---x-x-6-6-6-6-6---x-x---|--5---x---5---x-x-5-5-5-5-5---x-----|
E|------x-------x-x-------------x-x---|------x-------x-x-------------x-----|

(2:10)
  Gtr 1
    A chord diagramE MajorE   A chord diagramE MajorE   A chord diagramE MajorE   S S S S A chord diagramE MajorE   A chord diagramE MajorE   A chord diagramE MajorE        A chord diagramE MajorE   A chord diagramE MajorE   A chord diagramE MajorE   S S S S A chord diagramE MajorE   A chord diagramE MajorE   A chord diagramE MajorE
e|--------------x-x-x-x-----1---x-----|--------------x-x-x-x-----1---x-----|
B|----------4---x-x-x-x-----1---x-----|----------4---x-x-x-x-----1---x-----|
G|----------5---x-x-x-x-----1---x-----|----------5---x-x-x-x-----1---x-----|
D|------5---5---x-x-x-x-----3---x-----|------5---5---x-x-x-x-----3---x-----|
A|--3---3---3---x-x-x-x-----3---x-----|--3---3---3---x-x-x-x-----3---x-----|
E|--------------x-x-x-x-1---1---x-----|--------------x-x-x-x-1---1---x-----|
PM                      .             |                      .             |

    Q       A chord diagramE MajorE   S S S S A chord diagramE MajorE   A chord diagramE MajorE   A chord diagramE MajorE        A chord diagramE MajorE   A chord diagramE MajorE   A chord diagramE MajorE   S S S S A chord diagramE MajorE   A chord diagramE MajorE   A chord diagramE MajorE
e|--------------x-x-x-x-----4---x-----|----------3---x-x-x-x-----3---x-----|
B|--4-------4---x-x-x-x-----4---x-----|----------3---x-x-x-x-----3---x-----|
G|--5-------5---x-x-x-x-----5---x-----|----------4---x-x-x-x-----4---x-----|
D|--5-------5---x-x-x-x-----6---x-----|----------5---x-x-x-x-----5---x-----|
A|--3-------3---x-x-x-x-----6---x-----|----------5---x-x-x-x-----5---x-----|
E|--------------x-x-x-x-4---4---x-----|--3---3---3---x-x-x-x-3---3---x-----|
PM                      .             |  .   .               .             |

    A chord diagramE MajorE   A chord diagramE MajorE   A chord diagramE MajorE   S S S S A chord diagramE MajorE   A chord diagramE MajorE   A chord diagramE MajorE        A chord diagramE MajorE   A chord diagramE MajorE   A chord diagramE MajorE   S S S S A chord diagramE MajorE   A chord diagramE MajorE   A chord diagramE MajorE
e|--------------x-x-x-x-----1---x-----|--------------x-x-x-x-----1---x-----|
B|----------4---x-x-x-x-----1---x-----|----------4---x-x-x-x-----1---x-----|
G|----------5---x-x-x-x-----1---x-----|----------5---x-x-x-x-----1---x-----|
D|------5---5---x-x-x-x-----3---x-----|------5---5---x-x-x-x-----3---x-----|
A|--3---3---3---x-x-x-x-----3---x-----|--3---3---3---x-x-x-x-----3---x-----|
E|--------------x-x-x-x-1---1---x-----|--------------x-x-x-x-1---1---x-----|
PM                      .             |                      .             |

    A chord diagramE MajorE   A chord diagramE MajorE   A chord diagramE MajorE   S S S S A chord diagramE MajorE   A chord diagramE MajorE   A chord diagramE MajorE        A chord diagramE MajorE   A chord diagramE MajorE   A chord diagramE MajorE   S S S S S S A chord diagramE MajorE   A chord diagramE MajorE
e|--------------x-x-x-x-----1---x-----|----------3---x-x-----3-3-3---x-----|
B|----------4---x-x-x-x-----1---x-----|----------3---x-x---3-3-3-3---x-----|
G|----------5---x-x-x-x-----1---x-----|----------4---x-x---4-4-4-4---x-----|
D|------5---5---x-x-x-x-----3---x-----|----------5---x-x---5-5-5-5---x-----|
A|--3---3---3---x-x-x-x-----3---x-----|----------5---x-x---5-5-5-5---x-----|
E|--------------x-x-x-x-1---1---x-----|--3---3---3---x-x-3-3-3-3-3---x-----|
PM                      .             |  .   .                             |

(2:27)
  Gtr 1
    A chord diagramE MajorE   A chord diagramE MajorE   A chord diagramE MajorE   S S S S A chord diagramE MajorE   A chord diagramE MajorE   A chord diagramE MajorE        A chord diagramE MajorE   A chord diagramE MajorE   A chord diagramE MajorE   S S S S A chord diagramE MajorE   A chord diagramE MajorE   A chord diagramE MajorE
e|--------------x-x-x-x-----1---x-----|--------------x-x-x-x-----1---x-----|
B|----------4---x-x-x-x-----1---x-----|----------4---x-x-x-x-----1---x-----|
G|----------5---x-x-x-x-----1---x-----|----------5---x-x-x-x-----1---x-----|
D|------5---5---x-x-x-x-----3---x-----|------5---5---x-x-x-x-----3---x-----|
A|--3---3---3---x-x-x-x-----3---x-----|--3---3---3---x-x-x-x-----3---x-----|
E|--------------x-x-x-x-1---1---x-----|--------------x-x-x-x-1---1---x-----|
PM                      .             |                      .             |
 |Gtr 2                               |                                    |
 |  S S S S S(S)S S(S)S S(S)S(S)S S   |  S S S S S(S)S S(S)S S S S S S S   |
e|------------------------------------|------------------------------------|
B|--7h8-8-8-8---8-8---8-8---8---8-8---|--7h8-8-8-8---8-8---8-8-8-8-8-8-8---|
G|------------------------------------|------------------------------------|
D|------------------------------------|------------------------------------|
A|------------------------------------|------------------------------------|
E|------------------------------------|------------------------------------|

    A chord diagramE MajorE   A chord diagramE MajorE   A chord diagramE MajorE   S S S S A chord diagramE MajorE   A chord diagramE MajorE   A chord diagramE MajorE        A chord diagramE MajorE   A chord diagramE MajorE   A chord diagramE MajorE   S S S S S S A chord diagramE MajorE   A chord diagramE MajorE
e|--------------x-x-x-x-----1---x-----|--3---x---3---x-x-3-3-3-3-3---x-----|
B|----------4---x-x-x-x-----1---x-----|--3---x---3---x-x-3-3-3-3-3---x-----|
G|----------5---x-x-x-x-----1---x-----|--4---x---4---x-x-4-4-4-4-4---x-----|
D|------5---5---x-x-x-x-----3---x-----|--5---x---5---x-x-5-5-5-5-5---x-----|
A|--3---3---3---x-x-x-x-----3---x-----|--5---x---5---x-x-5-5-5-5-5---x-----|
E|--------------x-x-x-x-1---1---x-----|--3---x---3---x-x-3-3-3-3-3---x-----|
PM                      .             |                                    |
 |                                    |                                    |
 |  S S S S S(S)S S(S)S S(S)S(S)S S   |  S S S S S(S)S S(S)S S S S(S)S(S)  |
e|------------------------------------|------------------------------------|
B|--7h8-8-8-8---8-8---8-8---8---8-8---|--7h8-8-8-8---8-8---8-8-8-8---8-----|
G|------------------------------------|------------------------------------|
D|------------------------------------|------------------------------------|
A|------------------------------------|------------------------------------|
E|------------------------------------|------------------------------------|

    Q       A chord diagramE MajorE   S S S S A chord diagramE MajorE   A chord diagramE MajorE   A chord diagramE MajorE        A chord diagramE MajorE   A chord diagramE MajorE   A chord diagramE MajorE   S S S S A chord diagramE MajorE   A chord diagramE MajorE   A chord diagramE MajorE
e|--------------x-x-x-x-----1---x-----|--------------x-x-x-x-----1---x-----|
B|--4-------4---x-x-x-x-----1---x-----|----------4---x-x-x-x-----1---x-----|
G|--5-------5---x-x-x-x-----1---x-----|----------5---x-x-x-x-----1---x-----|
D|--5-------5---x-x-x-x-----3---x-----|------5---5---x-x-x-x-----3---x-----|
A|--3-------3---x-x-x-x-----3---x-----|--3---3---3---x-x-x-x-----3---x-----|
E|--------------x-x-x-x-1---1---x-----|--------------x-x-x-x-1---1---x-----|
PM                      .             |                      .             |
 |                                    |                                    |
 |  S S S S S(S)S S(S)S S(S)S(S)S S   |  S S S S S(S)S S(S)S S S S S S S   |
e|------------------------------------|------------------------------------|
B|--7h8-8-8-8---8-8---8-8---8---8-8---|--7h8-8-8-8---8-8---8-8-8-8-8-8-8---|
G|------------------------------------|------------------------------------|
D|------------------------------------|------------------------------------|
A|------------------------------------|------------------------------------|
E|------------------------------------|------------------------------------|

    A chord diagramE MajorE   A chord diagramE MajorE   A chord diagramE MajorE   S S S S A chord diagramE MajorE   A chord diagramE MajorE   A chord diagramE MajorE        A chord diagramE MajorE   A chord diagramE MajorE   A chord diagramE MajorE   S S S S A chord diagramE MajorE   A chord diagramE MajorE   A chord diagramE MajorE
e|--------------x-x-x-x-----1---x-----|----------3---x-x-x-x-----3---x-----|
B|----------4---x-x-x-x-----1---x-----|----------3---x-x-x-x-----3---x-----|
G|----------5---x-x-x-x-----1---x-----|----------4---x-x-x-x-----4---x-----|
D|------5---5---x-x-x-x-----3---x-----|----------5---x-x-x-x-----5---x-----|
A|--3---3---3---x-x-x-x-----3---x-----|----------5---x-x-x-x-----5---x-----|
E|--------------x-x-x-x-1---1---x-----|--3---3---3---x-x-x-x-3---3---x-----|
PM                      .             |  .   .               .             |
 |                                    |                                    |
 |  S S S S S(S)S S(S)S S(S)S(S)S S   |  S S S S S(S)S S(S)S S S S S S S   |
e|------------------------------------|------------------------------------|
B|--7h8-8-8-8---8-8---8-8---8---8-8---|--7h8-8-8-8---8-8---8-8-8-8-8-8-8---|
G|------------------------------------|------------------------------------|
D|------------------------------------|------------------------------------|
A|------------------------------------|------------------------------------|
E|------------------------------------|------------------------------------|

    A chord diagramE MajorE   A chord diagramE MajorE   A chord diagramE MajorE   S S S S A chord diagramE MajorE   A chord diagramE MajorE   A chord diagramE MajorE        A chord diagramE MajorE   A chord diagramE MajorE   A chord diagramE MajorE   S S S S A chord diagramE MajorE   A chord diagramE MajorE   A chord diagramE MajorE
e|--------------x-x-x-x-----1---x-----|--------------x-x-x-x-----1---x-----|
B|----------4---x-x-x-x-----1---x-----|----------4---x-x-x-x-----1---x-----|
G|----------5---x-x-x-x-----1---x-----|----------5---x-x-x-x-----1---x-----|
D|------5---5---x-x-x-x-----3---x-----|------5---5---x-x-x-x-----3---x-----|
A|--3---3---3---x-x-x-x-----3---x-----|--3---3---3---x-x-x-x-----3---x-----|
E|--------------x-x-x-x-1---1---x-----|--------------x-x-x-x-1---1---x-----|
PM                      .             |                      .             |
 |                                    |                                    |
 |  S S S S S(S)S S(S)S S(S)S(S)S S   |  S S S S S(S)S S(S)S S S S S S S   |
e|------------------------------------|------------------------------------|
B|--7h8-8-8-8---8-8---8-8---8---8-8---|--7h8-8-8-8---8-8---8-8-8-8-8-8-8---|
G|------------------------------------|------------------------------------|
D|------------------------------------|------------------------------------|
A|------------------------------------|------------------------------------|
E|------------------------------------|------------------------------------|

    Q       A chord diagramE MajorE   S S S S A chord diagramE MajorE   A chord diagramE MajorE   A chord diagramE MajorE        A chord diagramE MajorE   A chord diagramE MajorE   A chord diagramE MajorE   S S S S A chord diagramE MajorE   A chord diagramE MajorE   A chord diagramE MajorE
e|--------------x-x-x-x-----4---x-----|----------3---x-x-x-x-----3---x-----|
B|--4-------4---x-x-x-x-----4---x-----|----------3---x-x-x-x-----3---x-----|
G|--5-------5---x-x-x-x-----5---x-----|----------4---x-x-x-x-----4---x-----|
D|--5-------5---x-x-x-x-----6---x-----|----------5---x-x-x-x-----5---x-----|
A|--3-------3---x-x-x-x-----6---x-----|----------5---x-x-x-x-----5---x-----|
E|--------------x-x-x-x-4---4---x-----|--3---3---3---x-x-x-x-3---3---x-----|
PM                      .             |  .   .               .             |
 |                                    |                                    |
 |  S S S S S(S)S S(S)S S(S)S(S)S S   |  S S S S S(S)S S(S)S S S S S S S   |
e|------------------------------------|------------------------------------|
B|--7h8-8-8-8---8-8---8-8---8---8-8---|--7h8-8-8-8---8-8---8-8-8-8-8-8-8---|
G|------------------------------------|------------------------------------|
D|------------------------------------|------------------------------------|
A|------------------------------------|------------------------------------|
E|------------------------------------|------------------------------------|

    A chord diagramE MajorE   A chord diagramE MajorE   A chord diagramE MajorE   S S S S A chord diagramE MajorE   A chord diagramE MajorE   A chord diagramE MajorE        A chord diagramE MajorE   A chord diagramE MajorE   A chord diagramE MajorE   S S S S A chord diagramE MajorE   A chord diagramE MajorE   A chord diagramE MajorE
e|--------------x-x-x-x-----1---x-----|--------------x-x-x-x-----1---x-----|
B|----------4---x-x-x-x-----1---x-----|----------4---x-x-x-x-----1---x-----|
G|----------5---x-x-x-x-----1---x-----|----------5---x-x-x-x-----1---x-----|
D|------5---5---x-x-x-x-----3---x-----|------5---5---x-x-x-x-----3---x-----|
A|--3---3---3---x-x-x-x-----3---x-----|--3---3---3---x-x-x-x-----3---x-----|
E|--------------x-x-x-x-1---1---x-----|--------------x-x-x-x-1---1---x-----|
PM                      .             |                      .             |
 |                                    |                                    |
 |  S S S S S(S)S S(S)S S(S)S(S)S S   |  S S S S S(S)S S(S)S S S S S S S   |
e|------------------------------------|------------------------------------|
B|--7h8-8-8-8---8-8---8-8---8---8-8---|--7h8-8-8-8---8-8---8-8-8-8-8-8-8---|
G|------------------------------------|------------------------------------|
D|------------------------------------|------------------------------------|
A|------------------------------------|------------------------------------|
E|------------------------------------|------------------------------------|

    A chord diagramE MajorE   A chord diagramE MajorE   A chord diagramE MajorE   S S S S A chord diagramE MajorE   A chord diagramE MajorE   A chord diagramE MajorE        A chord diagramE MajorE   A chord diagramE MajorE   A chord diagramE MajorE   S S S S S S A chord diagramE MajorE   A chord diagramE MajorE
e|--------------x-x-x-x-----1---x-----|--3---x---3---x-x-----3-3-3---x-----|
B|----------4---x-x-x-x-----1---x-----|--3---x---3---x-x---3-3-3-3---x-----|
G|----------5---x-x-x-x-----1---x-----|--4---x---4---x-x---4-4-4-4---x-----|
D|------5---5---x-x-x-x-----3---x-----|--5---x---5---x-x---5-5-5-5---x-----|
A|--3---3---3---x-x-x-x-----3---x-----|--5---x---5---x-x---5-5-5-5---x-----|
E|--------------x-x-x-x-1---1---x-----|--3---x---3---x-x-3-3-3-3-3---x-----|
PM                      .             |                                    |
 |                                    |                                    |
 |  S S S S S(S)S S(S)S S(S)S(S)S S   |  S S S S S(S)S S(S)S S S S(S)S S   |
e|------------------------------------|------------------------------------|
B|--7h8-8-8-8---8-8---8-8---8---8-8---|--7h8-8-8-8---8-8---8-8-8-8---8-8---|
G|------------------------------------|------------------------------------|
D|------------------------------------|------------------------------------|
A|------------------------------------|------------------------------------|
E|------------------------------------|------------------------------------|

(3:02)
  Gtr 1
    A chord diagramE MajorE   A chord diagramE MajorE   A chord diagramE MajorE   S S S S A chord diagramE MajorE   A chord diagramE MajorE   A chord diagramE MajorE        A chord diagramE MajorE   A chord diagramE MajorE   A chord diagramE MajorE   S S S S A chord diagramE MajorE   A chord diagramE MajorE   A chord diagramE MajorE
e|--------------x-x-x-x-----1---x-----|--------------x-x-x-x-----1---x-----|
B|----------4---x-x-x-x-----1---x-----|----------4---x-x-x-x-----1---x-----|
G|----------5---x-x-x-x-----1---x-----|----------5---x-x-x-x-----1---x-----|
D|------5---5---x-x-x-x-----3---x-----|------5---5---x-x-x-x-----3---x-----|
A|--3---3---3---x-x-x-x-----3---x-----|--3---3---3---x-x-x-x-----3---x-----|
E|--------------x-x-x-x-1---1---x-----|--------------x-x-x-x-1---1---x-----|
PM                      .             |                      .             |

    A chord diagramE MajorE   A chord diagramE MajorE   A chord diagramE MajorE   S S S S A chord diagramE MajorE   A chord diagramE MajorE   A chord diagramE MajorE        A chord diagramE MajorE   A chord diagramE MajorE   A chord diagramE MajorE   S S S S S S A chord diagramE MajorE   A chord diagramE MajorE
e|--------------x-x-x-x-----1---x-----|--3---x---3---x-x-3-3-3-3-3---x-----|
B|----------4---x-x-x-x-----1---x-----|--3---x---3---x-x-3-3-3-3-3---x-----|
G|----------5---x-x-x-x-----1---x-----|--4---x---4---x-x-4-4-4-4-4---x-----|
D|------5---5---x-x-x-x-----3---x-----|--5---x---5---x-x-5-5-5-5-5---x-----|
A|--3---3---3---x-x-x-x-----3---x-----|--5---x---5---x-x-5-5-5-5-5---x-----|
E|--------------x-x-x-x-1---1---x-----|--3---x---3---x-x-3-3-3-3-3---x-----|
PM                      .             |                                    |

    Q       A chord diagramE MajorE   S S S S A chord diagramE MajorE   A chord diagramE MajorE   A chord diagramE MajorE        A chord diagramE MajorE   A chord diagramE MajorE   A chord diagramE MajorE   S S S S A chord diagramE MajorE   A chord diagramE MajorE   A chord diagramE MajorE
e|--------------x-x-x-x-----1---x-----|--------------x-x-x-x-----1---x-----|
B|--4-------4---x-x-x-x-----1---x-----|----------4---x-x-x-x-----1---x-----|
G|--5-------5---x-x-x-x-----1---x-----|----------5---x-x-x-x-----1---x-----|
D|--5-------5---x-x-x-x-----3---x-----|------5---5---x-x-x-x-----3---x-----|
A|--3-------3---x-x-x-x-----3---x-----|--3---3---3---x-x-x-x-----3---x-----|
E|--------------x-x-x-x-1---1---x-----|--------------x-x-x-x-1---1---x-----|
PM                      .             |                      .             |

    A chord diagramE MajorE   A chord diagramE MajorE   A chord diagramE MajorE   S S S S A chord diagramE MajorE   A chord diagramE MajorE   A chord diagramE MajorE        A chord diagramE MajorE   A chord diagramE MajorE   A chord diagramE MajorE   S S S S A chord diagramE MajorE   A chord diagramE MajorE   A chord diagramE MajorE
e|--------------x-x-x-x-----1---x-----|----------3---x-x-x-x-----3---x-----|
B|----------4---x-x-x-x-----1---x-----|----------3---x-x-x-x-----3---x-----|
G|----------5---x-x-x-x-----1---x-----|----------4---x-x-x-x-----4---x-----|
D|------5---5---x-x-x-x-----3---x-----|----------5---x-x-x-x-----5---x-----|
A|--3---3---3---x-x-x-x-----3---x-----|----------5---x-x-x-x-----5---x-----|
E|--------------x-x-x-x-1---1---x-----|--3---3---3---x-x-x-x-3---3---x-----|
PM                      .             |  .   .               .             |

    A chord diagramE MajorE   A chord diagramE MajorE   A chord diagramE MajorE   S S S S A chord diagramE MajorE   A chord diagramE MajorE   A chord diagramE MajorE        A chord diagramE MajorE   A chord diagramE MajorE   A chord diagramE MajorE   S S S S A chord diagramE MajorE   A chord diagramE MajorE   A chord diagramE MajorE
e|--------------x-x-x-x-----1---x-----|--------------x-x-x-x-----1---x-----|
B|----------4---x-x-x-x-----1---x-----|----------4---x-x-x-x-----1---x-----|
G|----------5---x-x-x-x-----1---x-----|----------5---x-x-x-x-----1---x-----|
D|------5---5---x-x-x-x-----3---x-----|------5---5---x-x-x-x-----3---x-----|
A|--3---3---3---x-x-x-x-----3---x-----|--3---3---3---x-x-x-x-----3---x-----|
E|--------------x-x-x-x-1---1---x-----|--------------x-x-x-x-1---1---x-----|
PM                      .             |                      .             |

    Q       A chord diagramE MajorE   S S S S A chord diagramE MajorE   A chord diagramE MajorE   A chord diagramE MajorE        A chord diagramE MajorE   A chord diagramE MajorE   A chord diagramE MajorE   S S S S A chord diagramE MajorE   A chord diagramE MajorE   A chord diagramE MajorE
e|--------------x-x-x-x-----4---x-----|----------3---x-x-x-x-----3---x-----|
B|--4-------4---x-x-x-x-----4---x-----|----------3---x-x-x-x-----3---x-----|
G|--5-------5---x-x-x-x-----5---x-----|----------4---x-x-x-x-----4---x-----|
D|--5-------5---x-x-x-x-----6---x-----|----------5---x-x-x-x-----5---x-----|
A|--3-------3---x-x-x-x-----6---x-----|----------5---x-x-x-x-----5---x-----|
E|--------------x-x-x-x-4---4---x-----|--3---3---3---x-x-x-x-3---3---x-----|
PM                      .             |  .   .               .             |

    A chord diagramE MajorE   A chord diagramE MajorE   A chord diagramE MajorE   S S S S A chord diagramE MajorE   A chord diagramE MajorE   A chord diagramE MajorE        A chord diagramE MajorE   A chord diagramE MajorE   A chord diagramE MajorE   S S S S A chord diagramE MajorE   A chord diagramE MajorE   A chord diagramE MajorE
e|--------------x-x-x-x-----1---x-----|--------------x-x-x-x-----1---x-----|
B|----------4---x-x-x-x-----1---x-----|----------4---x-x-x-x-----1---x-----|
G|----------5---x-x-x-x-----1---x-----|----------5---x-x-x-x-----1---x-----|
D|------5---5---x-x-x-x-----3---x-----|------5---5---x-x-x-x-----3---x-----|
A|--3---3---3---x-x-x-x-----3---x-----|--3---3---3---x-x-x-x-----3---x-----|
E|--------------x-x-x-x-1---1---x-----|--------------x-x-x-x-1---1---x-----|
PM                      .             |                      .             |

    A chord diagramE MajorE   A chord diagramE MajorE   A chord diagramE MajorE   S S S S A chord diagramE MajorE   A chord diagramE MajorE   A chord diagramE MajorE        A chord diagramE MajorE   A chord diagramE MajorE   A chord diagramE MajorE   S S S S S S A chord diagramE MajorE   A chord diagramE MajorE
e|--------------x-x-x-x-----1---x-----|----------3---x-x-x---3-3-3---x-----|
B|----------4---x-x-x-x-----1---x-----|----------3---x-x-x-3-3-3-3---x-----|
G|----------5---x-x-x-x-----1---x-----|----------4---x-x-x-4-4-4-4---x-----|
D|------5---5---x-x-x-x-----3---x-----|----------5---x-x-x-5-5-5-5---x-----|
A|--3---3---3---x-x-x-x-----3---x-----|----------5---x-x-x-5-5-5-5---x-----|
E|--------------x-x-x-x-1---1---x-----|--3---3---3---x-x-x-3-3-3-3---x-----|
PM                      .             |  .   .                             |

    A chord diagramE MajorE   A chord diagramE MajorE   A chord diagramE MajorE   S S S S A chord diagramE MajorE   A chord diagramE MajorE   A chord diagramE MajorE        A chord diagramE MajorE   A chord diagramE MajorE   A chord diagramE MajorE   S S S S A chord diagramE MajorE   A chord diagramE MajorE   A chord diagramE MajorE
e|--------------x-x-x-x-----1---x-----|--------------x-x-x-x-----1---x-----|
B|----------4---x-x-x-x-----1---x-----|----------4---x-x-x-x-----1---x-----|
G|----------5---x-x-x-x-----1---x-----|----------5---x-x-x-x-----1---x-----|
D|------5---5---x-x-x-x-----3---x-----|------5---5---x-x-x-x-----3---x-----|
A|--3---3---3---x-x-x-x-----3---x-----|--3---3---3---x-x-x-x-----3---x-----|
E|--------------x-x-x-x-1---1---x-----|--------------x-x-x-x-1---1---x-----|
PM                      .             |                      .             |

    A chord diagramE MajorE   A chord diagramE MajorE   A chord diagramE MajorE   S S S S A chord diagramE MajorE   A chord diagramE MajorE   A chord diagramE MajorE        A chord diagramE MajorE   A chord diagramE MajorE   A chord diagramE MajorE   S S S S S S A chord diagramE MajorE   A chord diagramE MajorE
e|--------------x-x-x-x-----1---x-----|--3---x---3---x-x-3-3-3-3-3---x-----|
B|----------4---x-x-x-x-----1---x-----|--3---x---3---x-x-3-3-3-3-3---x-----|
G|----------5---x-x-x-x-----1---x-----|--4---x---4---x-x-4-4-4-4-4---x-----|
D|------5---5---x-x-x-x-----3---x-----|--5---x---5---x-x-5-5-5-5-5---x-----|
A|--3---3---3---x-x-x-x-----3---x-----|--5---x---5---x-x-5-5-5-5-5---x-----|
E|--------------x-x-x-x-1---1---x-----|--3---x---3---x-x-3-3-3-3-3---x-----|
PM                      .             |                                    |

    Q       A chord diagramE MajorE   S S S S A chord diagramE MajorE   A chord diagramE MajorE   A chord diagramE MajorE        A chord diagramE MajorE   A chord diagramE MajorE   A chord diagramE MajorE   S S S S A chord diagramE MajorE   A chord diagramE MajorE   A chord diagramE MajorE
e|--------------x-x-x-x-----1---x-----|--------------x-x-x-x-----1---x-----|
B|--4-------4---x-x-x-x-----1---x-----|----------4---x-x-x-x-----1---x-----|
G|--5-------5---x-x-x-x-----1---x-----|----------5---x-x-x-x-----1---x-----|
D|--5-------5---x-x-x-x-----3---x-----|------5---5---x-x-x-x-----3---x-----|
A|--3-------3---x-x-x-x-----3---x-----|--3---3---3---x-x-x-x-----3---x-----|
E|--------------x-x-x-x-1---1---x-----|--------------x-x-x-x-1---1---x-----|
PM                      .             |                      .             |

    A chord diagramE MajorE   A chord diagramE MajorE   A chord diagramE MajorE   S S S S A chord diagramE MajorE   A chord diagramE MajorE   A chord diagramE MajorE        A chord diagramE MajorE   A chord diagramE MajorE   A chord diagramE MajorE   S S S S A chord diagramE MajorE   A chord diagramE MajorE   A chord diagramE MajorE
e|--------------x-x-x-x-----1---x-----|----------3---x-x-x-x-----3---x-----|
B|----------4---x-x-x-x-----1---x-----|----------3---x-x-x-x-----3---x-----|
G|----------5---x-x-x-x-----1---x-----|----------4---x-x-x-x-----4---x-----|
D|------5---5---x-x-x-x-----3---x-----|----------5---x-x-x-x-----5---x-----|
A|--3---3---3---x-x-x-x-----3---x-----|----------5---x-x-x-x-----5---x-----|
E|--------------x-x-x-x-1---1---x-----|--3---3---3---x-x-x-x-3---3---x-----|
PM                      .             |  .   .               .             |

(3:53)
  Gtr 1
    Q       A chord diagramE MajorE   S S S S S S A chord diagramE MajorE   S S      A chord diagramE MajorE   A chord diagramE MajorE   A chord diagramE MajorE   S S S S S S A chord diagramE MajorE   S S
e|--1-------1---x-x-1-1-1-1-1---x-x---|------x-------x-x-------------x-x---|
B|--1-------1---x-x-1-1-1-1-1---x-x---|--4---x---4---x-x-4-4-4-4-4---x-x---|
G|--1-------1---x-x-1-1-1-1-1---x-x---|--5---x---5---x-x-5-5-5-5-5---x-x---|
D|--3-------3---x-x-3-3-3-3-3---x-x---|--5---x---5---x-x-5-5-5-5-5---x-x---|
A|--3-------3---x-x-3-3-3-3-3---x-x---|--3---x---3---x-x-3-3-3-3-3---x-x---|
E|--1-------1---x-x-1-1-1-1-1---x-x---|------x-------x-x-------------x-x---|

    A chord diagramE MajorE   A chord diagramE MajorE   A chord diagramE MajorE   S S S S S S A chord diagramE MajorE   S S      A chord diagramE MajorE   A chord diagramE MajorE   A chord diagramE MajorE   S S S S A chord diagramE MajorE   A chord diagramE MajorE   S S
e|--1---x---1---x-x-1-1-1-1-1---x-x---|------x-------x-x-x-x-x-------x-x---|
B|--1---x---1---x-x-1-1-1-1-1---x-x---|--4---x---4---x-x-x-x-x---4---x-x---|
G|--1---x---1---x-x-1-1-1-1-1---x-x---|--5---x---5---x-x-x-x-x---5---x-x---|
D|--3---x---3---x-x-3-3-3-3-3---x-x---|--5---x---5---x-x-x-x-x---5---x-x---|
A|--3---x---3---x-x-3-3-3-3-3---x-x---|--3---x---3---x-x-x-x-x---3---x-x---|
E|--1---x---1---x-x-1-1-1-1-1---x-x---|------x-------x-x-x-x-x-------x-x---|

    A chord diagramE MajorE   A chord diagramE MajorE   A chord diagramE MajorE   S S S S S S A chord diagramE MajorE   S S      A chord diagramE MajorE   A chord diagramE MajorE   A chord diagramE MajorE   S S S S S S A chord diagramE MajorE   S S
e|--1---x---1---x-x-1-1-1-1-1---x-x---|--x---x-------x-x-------------x-x---|
B|--1---x---1---x-x-1-1-1-1-1---x-x---|--x---x---4---x-x-4-4-4-4-4---x-x---|
G|--2---x---2---x-x-2-2-2-2-2---x-x---|--x---x---5---x-x-5-5-5-5-5---x-x---|
D|--3---x---3---x-x-3-3-3-3-3---x-x---|--x---x---5---x-x-5-5-5-5-5---x-x---|
A|--3---x---3---x-x-3-3-3-3-3---x-x---|--x---x---3---x-x-3-3-3-3-3---x-x---|
E|--1---x---1---x-x-1-1-1-1-1---x-x---|--x---x-------x-x-------------x-x---|

    A chord diagramE MajorE   A chord diagramE MajorE   A chord diagramE MajorE   S S S S S S A chord diagramE MajorE   S S      A chord diagramE MajorE   A chord diagramE MajorE   A chord diagramE MajorE   S S S S S S A chord diagramE MajorE   S
e|------x-------x-x-------------x-x---|------x-------x-x-------------x-----|
B|--8---x---8---x-x-8-8-8-8-8---x-x---|--7---x---7---x-x-7-7-7-7-7---x-----|
G|--8---x---8---x-x-8-8-8-8-8---x-x---|--7---x---7---x-x-7-7-7-7-7---x-----|
D|--8---x---8---x-x-8-8-8-8-8---x-x---|--7---x---7---x-x-7-7-7-7-7---x-----|
A|--6---x---6---x-x-6-6-6-6-6---x-x---|--5---x---5---x-x-5-5-5-5-5---x-----|
E|------x-------x-x-------------x-x---|------x-------x-x-------------x-----|

(4:10)
  Gtr 1
    A chord diagramE MajorE   A chord diagramE MajorE   A chord diagramE MajorE   S S S S A chord diagramE MajorE   A chord diagramE MajorE   A chord diagramE MajorE        A chord diagramE MajorE   A chord diagramE MajorE   A chord diagramE MajorE   S S S S A chord diagramE MajorE   A chord diagramE MajorE   A chord diagramE MajorE
e|--------------x-x-x-x-----1---x-----|--------------x-x-x-x-----1---x-----|
B|----------4---x-x-x-x-----1---x-----|----------4---x-x-x-x-----1---x-----|
G|----------5---x-x-x-x-----1---x-----|----------5---x-x-x-x-----1---x-----|
D|------5---5---x-x-x-x-----3---x-----|------5---5---x-x-x-x-----3---x-----|
A|--3---3---3---x-x-x-x-----3---x-----|--3---3---3---x-x-x-x-----3---x-----|
E|--------------x-x-x-x-1---1---x-----|--------------x-x-x-x-1---1---x-----|
PM                      .             |                      .             |

    Q       A chord diagramE MajorE   S S S S A chord diagramE MajorE   A chord diagramE MajorE   A chord diagramE MajorE        A chord diagramE MajorE   A chord diagramE MajorE   A chord diagramE MajorE   S S S S A chord diagramE MajorE   A chord diagramE MajorE   A chord diagramE MajorE
e|--------------x-x-x-x-----4---x-----|----------3---x-x-x-x-----3---x-----|
B|--4-------4---x-x-x-x-----4---x-----|----------3---x-x-x-x-----3---x-----|
G|--5-------5---x-x-x-x-----5---x-----|----------4---x-x-x-x-----4---x-----|
D|--5-------5---x-x-x-x-----6---x-----|----------5---x-x-x-x-----5---x-----|
A|--3-------3---x-x-x-x-----6---x-----|----------5---x-x-x-x-----5---x-----|
E|--------------x-x-x-x-4---4---x-----|--3---3---3---x-x-x-x-3---3---x-----|
PM                      .             |  .   .               .             |

    A chord diagramE MajorE   A chord diagramE MajorE   A chord diagramE MajorE   S S S S A chord diagramE MajorE   A chord diagramE MajorE   A chord diagramE MajorE        A chord diagramE MajorE   A chord diagramE MajorE   A chord diagramE MajorE   S S S S A chord diagramE MajorE   A chord diagramE MajorE   A chord diagramE MajorE
e|--------------x-x-x-x-----1---x-----|--------------x-x-x-x-----1---x-----|
B|----------4---x-x-x-x-----1---x-----|----------4---x-x-x-x-----1---x-----|
G|----------5---x-x-x-x-----1---x-----|----------5---x-x-x-x-----1---x-----|
D|------5---5---x-x-x-x-----3---x-----|------5---5---x-x-x-x-----3---x-----|
A|--3---3---3---x-x-x-x-----3---x-----|--3---3---3---x-x-x-x-----3---x-----|
E|--------------x-x-x-x-1---1---x-----|--------------x-x-x-x-1---1---x-----|
PM                      .             |                      .             |

    A chord diagramE MajorE   A chord diagramE MajorE   A chord diagramE MajorE   S S S S A chord diagramE MajorE   A chord diagramE MajorE   A chord diagramE MajorE        A chord diagramE MajorE   A chord diagramE MajorE   A chord diagramE MajorE   S S S S S S A chord diagramE MajorE   A chord diagramE MajorE
e|--------------x-x-x-x-----1---x-----|----------3---x-x-x---3-3-3---x-----|
B|----------4---x-x-x-x-----1---x-----|----------3---x-x-x-3-3-3-3---x-----|
G|----------5---x-x-x-x-----1---x-----|----------4---x-x-x-4-4-4-4---x-----|
D|------5---5---x-x-x-x-----3---x-----|----------5---x-x-x-5-5-5-5---x-----|
A|--3---3---3---x-x-x-x-----3---x-----|----------5---x-x-x-5-5-5-5---x-----|
E|--------------x-x-x-x-1---1---x-----|--3---3---3---x-x-x-3-3-3-3---x-----|
PM                      .             |  .   .                             |

    A chord diagramE MajorE   A chord diagramE MajorE   A chord diagramE MajorE   S S S S A chord diagramE MajorE   A chord diagramE MajorE   A chord diagramE MajorE        A chord diagramE MajorE   A chord diagramE MajorE   A chord diagramE MajorE   S S S S A chord diagramE MajorE   A chord diagramE MajorE   A chord diagramE MajorE
e|--------------x-x-x-x-----1---x-----|--------------x-x-x-x-----1---x-----|
B|----------4---x-x-x-x-----1---x-----|----------4---x-x-x-x-----1---x-----|
G|----------5---x-x-x-x-----1---x-----|----------5---x-x-x-x-----1---x-----|
D|------5---5---x-x-x-x-----3---x-----|------5---5---x-x-x-x-----3---x-----|
A|--3---3---3---x-x-x-x-----3---x-----|--3---3---3---x-x-x-x-----3---x-----|
E|--------------x-x-x-x-1---1---x-----|--------------x-x-x-x-1---1---x-----|
PM                      .             |                      .             |

    A chord diagramE MajorE   A chord diagramE MajorE   A chord diagramE MajorE   S S S S A chord diagramE MajorE   A chord diagramE MajorE   A chord diagramE MajorE        A chord diagramE MajorE   A chord diagramE MajorE   A chord diagramE MajorE   S S S S S S A chord diagramE MajorE   A chord diagramE MajorE
e|--------------x-x-x-x-----1---x-----|--3---x---3---x-x-3-3-3-3-3---x-----|
B|----------4---x-x-x-x-----1---x-----|--3---x---3---x-x-3-3-3-3-3---x-----|
G|----------5---x-x-x-x-----1---x-----|--4---x---4---x-x-4-4-4-4-4---x-----|
D|------5---5---x-x-x-x-----3---x-----|--5---x---5---x-x-5-5-5-5-5---x-----|
A|--3---3---3---x-x-x-x-----3---x-----|--5---x---5---x-x-5-5-5-5-5---x-----|
E|--------------x-x-x-x-1---1---x-----|--3---x---3---x-x-3-3-3-3-3---x-----|
PM                      .             |                                    |

    Q       A chord diagramE MajorE   S S S S A chord diagramE MajorE   A chord diagramE MajorE   A chord diagramE MajorE        A chord diagramE MajorE   A chord diagramE MajorE   A chord diagramE MajorE   S S S S A chord diagramE MajorE   A chord diagramE MajorE   A chord diagramE MajorE
e|--------------x-x-x-x-----1---x-----|--------------x-x-x-x-----1---x-----|
B|--4-------4---x-x-x-x-----1---x-----|----------4---x-x-x-x-----1---x-----|
G|--5-------5---x-x-x-x-----1---x-----|----------5---x-x-x-x-----1---x-----|
D|--5-------5---x-x-x-x-----3---x-----|------5---5---x-x-x-x-----3---x-----|
A|--3-------3---x-x-x-x-----3---x-----|--3---3---3---x-x-x-x-----3---x-----|
E|--------------x-x-x-x-1---1---x-----|--------------x-x-x-x-1---1---x-----|
PM                      .             |                      .             |

    A chord diagramE MajorE   A chord diagramE MajorE   A chord diagramE MajorE   S S S S A chord diagramE MajorE   A chord diagramE MajorE   A chord diagramE MajorE        A chord diagramE MajorE   A chord diagramE MajorE   A chord diagramE MajorE   S S S S A chord diagramE MajorE   A chord diagramE MajorE   A chord diagramE MajorE
e|--------------x-x-x-x-----1---x-----|----------3---x-x-x-x-----3---x-----|
B|----------4---x-x-x-x-----1---x-----|----------3---x-x-x-x-----3---x-----|
G|----------5---x-x-x-x-----1---x-----|----------4---x-x-x-x-----4---x-----|
D|------5---5---x-x-x-x-----3---x-----|----------5---x-x-x-x-----5---x-----|
A|--3---3---3---x-x-x-x-----3---x-----|----------5---x-x-x-x-----5---x-----|
E|--------------x-x-x-x-1---1---x-----|--3---3---3---x-x-x-x-3---3---x-----|
PM                      .             |  .   .               .             |

    Q       A chord diagramE MajorE   S S S S A chord diagramE MajorE   A chord diagramE MajorE  (A chord diagramE MajorE)
e|--3-----------x-x-x-x---------------|
B|--3-------4---x-x-x-x-----4---------|
G|--4-------5---x-x-x-x-----5---------|
D|--5-------5---x-x-x-x-----5---------|
A|--5-------3---x-x-x-x-3---3---------|
E|--3-----------x-x-x-x---------------|
PM                      .             |


************************************

|  x   Dead note
|  PM  Palm mute
|  S   Sixteenth note
|  A chord diagramE MajorE   Eighth note
|  Q   Quarter note
| (N)  Rest
|o o|  Reprise

↓ Add and view comments below ↓

What do you think about this song and these tabs?

Add your comments, questions, rant or a thumbs up below.

Almost there ...

Sign in to get your own page with links to favourite songs and more. You are just one click away...

Login with Facebook Login with Google