Log in

One click and you are in

Login with Facebook Login with Google

Why sign up and log in

Guitar Tabs Explorer
Tara Maclean guitar tabs for Higher

Guitar tabs

higher -- tara maclean
passenger

This is pretty bare-bones -- for simplicity some extra picking has been
omitted but it uses the same fingering.  As always, listen to the album
for timing and feel free to contact me with any changes/questions at

Standard tuning.

if I could spend my life...

e|-7-------5-----------3-----
B|---8-------8-----1h3--p1-0-
G|-0---0---0---0-----------0-   x 3
D|---------------------------
A|---------------------------
E|---------------------------

higher than I am...

e|--------------------------- ---0-
B|-----3-------3-------1p0--- -----
G|---0-------0--------------- -----
D|-5-------4-------0h2------- -----
A|-------------------------3- -3---
E|--------------------------- -----

e|---------------------------
B|-----3-------3-------1p0---
G|---0-------0---------------
D|-5-------4-------0h2-------
A|---------------------------
E|---------------------------

and if the sky...

e|-7-------5-----------3-----
B|---8-------8-----1h3--p1-0-
G|-0---0---0---0-----------0-   x 3
D|---------------------------
A|---------------------------
E|---------------------------

I'd hold you in my hand...

e|--------------------------- ---0-
B|-----3-------3-------1p0--- ---1-
G|---0-------0--------------- -----
D|-5-------4-------0h2------- -----
A|-------------------------3- -3---
E|--------------------------- -----

hold you in my hand...

e|---------------------------
B|-----3-------3-------1p0---
G|---0-------0---------------
D|-5-------4-------0h2-------
A|---------------------------
E|-------------------------3-

higher...

e|---------------------------
B|/8---8---7---7---5---5---3-   x 3
G|-0-0-----0-0---0-0-0-----0-
D|---------------------------
A|---------------------------
E|---------------------------

higher than I am...

e|--------------------------- ---0-
B|-----3-------3-------1p0--- -----
G|---0-------0--------------- -----
D|-5-------4-------0h2------- -----
A|-------------------------3- -3---
E|--------------------------- -----

e|---------------------------
B|-----3-------3-------1p0---
G|---0-------0---------------
D|-5-------4-------0h2-------
A|---------------------------
E|-------------------------3-

so this is where...

e|-7-------5-----------3-----
B|---8-------8-----1h3--p1-0-
G|-0---0---0---0-----------0-   x 3
D|---------------------------
A|---------------------------
E|---------------------------

and I will be the lamb...

e|--------------------------- ---0-
B|-----3-------3-------1p0--- ---1-
G|---0-------0--------------- -----
D|-5-------4-------0h2------- -----
A|-------------------------3- -3---
E|--------------------------- -----

I will be the lamb...

e|---------------------------
B|-----3-------3-------1p0---
G|---0-------0---------------
D|-5-------4-------0h2-------
A|---------------------------
E|-------------------------3-

higher...

e|---------------------------
B|/8---8---7---7---5---5---3-   x 3
G|-0-0-----0-0---0-0-0-----0-
D|---------------------------
A|---------------------------
E|---------------------------

higher than I am...

e|--------------------------- ---0-
B|-----3-------3-------1p0--- -----
G|---0-------0--------------- -----
D|-5-------4-------0h2------- -----
A|-------------------------3- -3---
E|--------------------------- -----

e|--------------------------- ---0-
B|-----3-------3-------1p0--- ---0-
G|---0-------0--------------- -----
D|-5-------4-------0h2------- -----
A|--------------------------- -----
E|-------------------------3- --3--

I see you sleeping now...  (barre chords)

A chord diagramFF  A chord diagramC majorC  A chord diagramA#A#
A chord diagramFF  A chord diagramC majorC  A chord diagramD MajorD

so this is where I long to be...

e|-7-------5-----------3-----
B|---8-------8-----1h3--p1-0-
G|-0---0---0---0-----------0-   x 3
D|---------------------------
A|---------------------------
E|---------------------------

and I would be the lamb...

e|--------------------------- ---0-
B|-----3-------3-------1p0--- -----
G|---0-------0--------------- -----
D|-5-------4-------0h2------- -----
A|-------------------------3- -3---
E|--------------------------- -----

I would be the lamb...

e|---------------------------
B|-----3-------3-------1p0---
G|---0-------0---------------
D|-5-------4-------0h2-------
A|---------------------------
E|-------------------------3-

higher...

e|---------------------------
B|/8---8---7---7---5---5---3-   x 3
G|-0-0-----0-0---0-0-0-----0-
D|---------------------------
A|---------------------------
E|---------------------------

I would be the lamb...

e|--------------------------- ---0-
B|-----3-------3-------1p0--- ---1-
G|---0-------0--------------- -----
D|-5-------4-------0h2------- -----
A|-------------------------3- -3---
E|--------------------------- -----

higher than I am...

e|---------------------------
B|-----3-------3-------1p0---
G|---0-------0---------------
D|-5-------4-------0h2-------
A|---------------------------
E|-------------------------3-

Almost there ...

Sign in to get your own page with links to favourite songs and more. You are just one click away...

Login with Facebook Login with Google