Log in

One click and you are in

Login with Facebook Login with Google

Why sign up and log in

Guitar Tabs Explorer
Macklemore And Ryan Lewis guitar tabs for Same love

Intro

Tuning: Standard (E A D G B E)

Difficulty: Intermediate


Intro:

e|-------4--------------5------5------------------7-----------9--------------|
B|-------6--------------7------7------------------9-----------10-------------|
G|-------6--------------7------7------------------9-----------11-------------|
D|-------6--------------7------6------------------9-----------11-------------|
A|-------4----------5---5------5------------7-----7-----------9--------------|
E|-------4--------------5------5------------------7-----------9--------------|

e|--------5------5----------5------------------------------------------------|
B|--------7------5----------5------------------------------------------------|
G|--------7------6----------6------------------------------------------------|
D|--------7------7----------7------------------------------------------------|
A|--------5------7----------7------------------------------------------------|
E|--------5------5----------5------------------------------------------------|


Verse:

e|----5-------4--------------5------5------------------7-----------9---------|
B|----5-------6--------------7------7------------------9-----------10--------|
G|----6-------6--------------7------7------------------9-----------11--------|
D|----7-------6--------------7------6------------------9-----------11--------|
A|----7-------4--------------5------5------------------7-----------9---------|
E|----5-------4--------------5------5------------------7-----------9---------|

e|--------5------5----------5------------------------------------------------|
B|--------7------5----------5------------------------------------------------|
G|--------7------6----------6------------------------------------------------|
D|--------7------7----------7------------------------------------------------|
A|--------5------7----------7------------------------------------------------|
E|--------5------5----------5------------------------------------------------|

Other versions of Same Love

Same loveChords

Almost there ...

Sign in to get your own page with links to favourite songs and more. You are just one click away...

Login with Facebook Login with Google