Log in

One click and you are in

Login with Facebook Login with Google

Why sign up and log in

Guitar Tabs Explorer
Macklemore And Ryan Lewis bass tabs for Downtown

Downtown bass tab by Macklemore And Ryan Lewis

Macklemore And Ryan Lewis bass tabs for Downtown

Bass tabs

-------------------------------------------------------------------------------
                             DOWNTOWN - Macklemore
-------------------------------------------------------------------------------
Tabbed by: MusicFever
Tuning:EADG


Intro/Verse:
(comes in 0:17)
G|---------------------------------------------------------------------------|
D|--------------8-8-6--------------------------------------------------------|
A|--------------------8-6----------------------------------------------------|
E|-6-6--6--6-6------------6-6------------------------------------------------| x11

(Pause)

"Killing the game..." (1:07)
G|---------------------------------------------------------------------------|
D|--------------8-8-6--------------------------------------------------------|
A|--------------------8-6----------------------------------------------------|
E|-6-6--6--6-6------------6-6------------------------------------------------| x2

(No bass for a bit)

(1:33)
G|---------------------------------------------------------------------------|
D|--------------8-8-6--------------------------------------------------------|
A|--------------------8-6----------------------------------------------------|
E|-6-6--6--6-6------------6-6------------------------------------------------| x1


Chorus:
(comes in at 2:17)
G|---------------------------------------------------------------------------|
D|---------------------------------------------------------------------------|
A|-4---------1---------------------------------------------------------------|
E|----4-2--4----1-2--4-------------------------------------------------------| x2


Verse 2:
(2:41)
G|---------------------------------------------------------------------------|
D|---------------------------------------------------------------------------|
A|---------------------------------------------------------------------------|
E|-6-6----------------------------------6-6----------------------------------|


G|---------------------------------------------------------------------------|
D|--------------8-8-8-6------------------------------------------------------|
A|----------------------8-6--------------------------------------------------|
E|-6-6--6--6-6--------------6-6----------------------------------------------| x2


CHORUS riff x2 at 4:13

END


Make sure to rate and leave a comment with any changes although i'm 99% sure this is all correct!

Almost there ...

Sign in to get your own page with links to favourite songs and more. You are just one click away...

Login with Facebook Login with Google