Log in

One click and you are in

Login with Facebook Login with Google

Why sign up and log in

Guitar Tabs Explorer
Macklemore And Ryan Lewis bass tabs for Cant hold us

Can't Hold Us bass tab by Macklemore And Ryan Lewis

Macklemore And Ryan Lewis bass tabs for Cant hold us

Bass tabs with lyrics

Tuning: Standard (E A D G)

Key: Em

Difficulty: Intermediate

16 bars intro (0.00 - no bass)

8 bars verse  (0.26 - no bass)

              (0.39)

G |----------------|----------------|----------------|-----------------|
D |----2-------2---|----0-------0---|----0-------0---|----2-------2----|
A |----------------|--0-------------|----------------|--0--------------|
E |0---------------|----------------|0---------------|-----------------|
   1 + 2 + 3 + 4 +  1 + 2 + 3 + 4 +  1 + 2 + 3 + 4 +  1 + 2 + 3 + 4 +

G |----------------|----------------|----------------|-----------------|----
D |----2-------2---|----0-------0---|----0-------0---|----2-------2----|----
A |----------------|--0-------------|----------------|--0--------------|----
E |0---------------|----------------|0---------------|-----------------|0---
   1 + 2 + 3 + 4 +  1 + 2 + 3 + 4 +  1 + 2 + 3 + 4 +  1 + 2 + 3 + 4 +   1 + ...

8 bars verse  (0.53 - no bass)

              (1.06)

G |----------------|----------------|----------------|-----------------|
D |----2-------2---|----0-------0---|----0-------0---|----2-------2----|
A |----------------|--0-------------|----------------|--0--------------|
E |0---------------|----------------|0---------------|-----------------|
   1 + 2 + 3 + 4 +  1 + 2 + 3 + 4 +  1 + 2 + 3 + 4 +  1 + 2 + 3 + 4 +

G |----------------|0---------------|----------------|-----------------|
D |----2---------4-|----0-------0---|----0-------0---|----2-------2----|
A |----------------|----------------|----------------|--0--------------|
E |0---------------|----------------|0---------------|-----------------|
   1 + 2 + 3 + 4 +  1 + 2 + 3 + 4 +  1 + 2 + 3 + 4 +  1 + 2 + 3 + 4 +

G |----------------|----------------|----------------|-----------------|----
D |----2-------2---|----0-------0---|----0-------0---|----2-------2----|----
A |----------------|--0-------------|----------------|--0--------------|----
E |0---------------|----------------|0---------------|-----------------|0---
   1 + 2 + 3 + 4 +  1 + 2 + 3 + 4 +  1 + 2 + 3 + 4 +  1 + 2 + 3 + 4 +   1 + ....

4 bars verse  (1.26 - no bass)

8 bars chorus (1.32 - no bass)

              (1.45)

G |----------------|----------------|----------------|-----------------|
D |----2-------2---|----0-------0---|----0-------0---|----2-------2----|
A |----------------|--0-------------|----------------|--0--------------|
E |0---------------|----------------|0---------------|-----------------|
   1 + 2 + 3 + 4 +  1 + 2 + 3 + 4 +  1 + 2 + 3 + 4 +  1 + 2 + 3 + 4 +

G |----------------|0---------------|----------------|-----------------|
D |----2---------4-|----0-------0---|----0-------0---|----2-------2----|
A |----------------|----------------|----------------|--0--------------|
E |0---------------|----------------|0---------------|-----------------|
   1 + 2 + 3 + 4 +  1 + 2 + 3 + 4 +  1 + 2 + 3 + 4 +  1 + 2 + 3 + 4 +

              (1.58)

G |----------------|----------------|----------------|-----------------|
D |----2-------2---|----0-------0---|----0-------0---|----2-------2----|
A |----------------|--0-------------|----------------|--0--------------|
E |0---------------|----------------|0---------------|-----------------|
   1 + 2 + 3 + 4 +  1 + 2 + 3 + 4 +  1 + 2 + 3 + 4 +  1 + 2 + 3 + 4 +

G |----------------|0---------------|----------------|-----------------|
D |----2---------4-|----0-------0---|----------------|-----------------|
A |----------------|----------------|----------------|-----------------|
E |0---------------|----------------|0---------------|-----------------|
   1 + 2 + 3 + 4 +  1 + 2 + 3 + 4 +  1 + 2 + 3 + 4 +  1 + 2 + 3 + 4 +

              (2.12 - use octave pedal if you have one, or transpose down an octave if you have 5th string)

G |----------------|----------------|----------------|-----------------|
D |2-----------2-4-|5---------------|2-0---------4-0-|2----------------|
A |----------------|----------------|----------------|-----------------|
E |----------------|----------------|----------------|-----------------|
   1 + 2 + 3 + 4 +  1 + 2 + 3 + 4 +  1 + 2 + 3 + 4 +  1 + 2 + 3 + 4 +

G |----------------|----------------|------------11--|9----------------|
D |2-----------2-4-|5---------------|12------------12|-----------------|
A |----------------|----------------|----------------|-----------------|
E |----------------|----------------|----------------|-----------------|
   1 + 2 + 3 + 4 +  1 + 2 + 3 + 4 +  1 + 2 + 3 + 4 +  1 + 2 + 3 + 4 +

              (2.25)

G |----------------|----------------|----------------|-----------------|
D |----2-------2---|----0-------0---|----0-------0---|----2-------2----|
A |----------------|--0-------------|----------------|--0--------------|
E |0---------------|----------------|0---------------|-----------------|
   1 + 2 + 3 + 4 +  1 + 2 + 3 + 4 +  1 + 2 + 3 + 4 +  1 + 2 + 3 + 4 +

G |----------------|0---------------|----------------|-----------------|
D |----2---------4-|----0-------0---|----0-------0---|-----------------|
A |----------------|----------------|----------------|-----------------|
E |0---------------|----------------|0---------------|-----------------|
   1 + 2 + 3 + 4 +  1 + 2 + 3 + 4 +  1 + 2 + 3 + 4 +  1 + 2 + 3 + 4 +

              (2.38)

G |----------------|----------------|----------------|-----------------|
D |----2-------2---|----0-------0---|----0-------0---|----2-------2----|
A |----------------|--0-------------|----------------|--0--------------|
E |0---------------|----------------|0---------------|-----------------|
   1 + 2 + 3 + 4 +  1 + 2 + 3 + 4 +  1 + 2 + 3 + 4 +  1 + 2 + 3 + 4 +

G |----------------|0---------------|----------------|-----------------|
D |----2---------4-|----0-------0---|----0-------0---|----2-------2----|
A |----------------|----------------|----------------|--0--------------|
E |0---------------|----------------|0---------------|-----------------|
   1 + 2 + 3 + 4 +  1 + 2 + 3 + 4 +  1 + 2 + 3 + 4 +  1 + 2 + 3 + 4 +

              (2.51)

G |----------------|----------------|----------------|-----------------|
D |----2-------2---|----0-------0---|----0-------0---|----2-------2----|
A |----------------|--0-------------|----------------|--0--------------|
E |0---------------|----------------|0---------------|-----------------|
   1 + 2 + 3 + 4 +  1 + 2 + 3 + 4 +  1 + 2 + 3 + 4 +  1 + 2 + 3 + 4 +

G |----------------|0---------------|----------------|-----------------|
D |----2---------4-|----0-------0---|----0-------0---|-----------------|
A |----------------|----------------|----------------|-----------------|
E |0---------------|----------------|0---------------|-----------------|
   1 + 2 + 3 + 4 +  1 + 2 + 3 + 4 +  1 + 2 + 3 + 4 +  1 + 2 + 3 + 4 +

4 bars horns interlude (3.04 - no bass)

              (3.11)

G |----------------|----------------|----------------|-----------------|
D |2-----------2-4-|5---------------|0---------------|2----------------|
A |----------------|----------------|----------------|-----------------|
E |----------------|----------------|----------------|-----------------|
   1 + 2 + 3 + 4 +  1 + 2 + 3 + 4 +  1 + 2 + 3 + 4 +  1 + 2 + 3 + 4 +

G |----------------|----------------|----------------|-----------------|
D |2-----------2-4-|5---------------|2-0---------4-0-|2----------------|
A |----------------|----------------|----------------|-----------------|
E |----------------|----------------|----------------|-----------------|
   1 + 2 + 3 + 4 +  1 + 2 + 3 + 4 +  1 + 2 + 3 + 4 +  1 + 2 + 3 + 4 +

G |----------------|----------------|----------------|-----------------|
D |2-----------2-4-|5---------------|0-----------4-0-|2----------------|
A |----------------|----------------|----------------|-----------------|
E |----------------|----------------|----------------|-----------------|
   1 + 2 + 3 + 4 +  1 + 2 + 3 + 4 +  1 + 2 + 3 + 4 +  1 + 2 + 3 + 4 +

8 bars outro  (3.30 - no bass)

              (3.44)

G |----------------|----------------|----------------|-----------------|
D |----2-------2---|----0-------0---|----0-------0---|----2-------2----|
A |----------------|--0-------------|----------------|--0--------------|
E |0---------------|----------------|0---------------|-----------------|
   1 + 2 + 3 + 4 +  1 + 2 + 3 + 4 +  1 + 2 + 3 + 4 +  1 + 2 + 3 + 4 +

G |----------------|0---------------|----------------|-----------------|
D |----2---------4-|----0-------0---|----------------|-----------------|
A |----------------|----------------|----------------|-----------------|
E |0---------------|----------------|0---------------|-----------------|
   1 + 2 + 3 + 4 +  1 + 2 + 3 + 4 +  1 + 2 + 3 + 4 +  1 + 2 + 3 + 4 +

              (3.57)

G |----------------|----------------|----------------|-----------------|
D |----2-------2---|----0-------0---|----0-------0---|----2-------2----|
A |----------------|--0-------------|----------------|--0--------------|
E |0---------------|----------------|0---------------|-----------------|
   1 + 2 + 3 + 4 +  1 + 2 + 3 + 4 +  1 + 2 + 3 + 4 +  1 + 2 + 3 + 4 +

G |----------------|0---------------|----------------|-----------------|
D |----2---------4-|----0-------0---|----0-------0---|----2-------2----|
A |----------------|----------------|----------------|--0--------------|
E |0---------------|----------------|0---------------|-----------------|
   1 + 2 + 3 + 4 +  1 + 2 + 3 + 4 +  1 + 2 + 3 + 4 +  1 + 2 + 3 + 4 +

              (4.10)

G |----------------|----------------|----------------|-----------------|
D |----2-------2---|----0-------0---|----0-------0---|----2-------2----|
A |----------------|--0-------------|----------------|--0--------------|
E |0---------------|----------------|0---------------|-----------------|
   1 + 2 + 3 + 4 +  1 + 2 + 3 + 4 +  1 + 2 + 3 + 4 +  1 + 2 + 3 + 4 +

G |----------------|0---------------|----------------|-----------------|
D |----2---------4-|----0-------0---|----0-------0---|-----------------|
A |----------------|----------------|----------------|-----------------|
E |0---------------|----------------|0---------------|-----------------|
   1 + 2 + 3 + 4 +  1 + 2 + 3 + 4 +  1 + 2 + 3 + 4 +  1 + 2 + 3 + 4 +

End

Almost there ...

Sign in to get your own page with links to favourite songs and more. You are just one click away...

Login with Facebook Login with Google