Log in

One click and you are in

Login with Facebook Login with Google

Why sign up and log in

Guitar Tabs Explorer
Macklemore guitar tabs for Otherside (Ver. 2)

Guitar tabs

Otherside
Macklemore & Ryan Lewis

Submitted by: Biter

Red Hot Chili Peppers Riff
Guitar
E|-------------------------------------------------------------------|
B|-------------------------------------------------------------------|
G|-------------------------------------------------------------------|
D|-----------------7-----7---9-7-------------------------------------|
A|-7-----7-----7-----------------10-7---------------5-----5-----5----|
E|-------------------------------------------------------------------|

Bass
G|-------------------------------------------------------------------|
D|-------------------------------------------------------------------|
A|----------------------------------3-----3---3-3--------------------|
E|-5-----5---5-3\---1-----1---1-1-----------------0-3-----3-----3----|


Ryan Lewis Riff
E|-----------------|-----------------|-----------------|-----------------|
B|-------5-----5---|-------6-----6-5-|-------5-----5-3-|-------3---------|
G|-----5-----5---5-|-----5-----5-----|-----5-----5-----|-----4-----5-5-4-|
D|---7-----7-------|---7-----7-------|---5-----5-------|---5-----5-------|
A|-----------------|-----------------|-----------------|-----------------|
E|-----------------|-----------------|-----------------|-----------------|


(1:01)
Sounds like the wind is blowing
When played on a guitar, these notes sound best if you use Tremolo picking,
AKA pick each note rapidly and several times
Just listen to the song for the changes
A chord diagramE MajorE |-17-----------------|----------------15---|-17------------------|
A chord diagramBB |--------------------|-13---15---17--------|-----------17---15---|
A chord diagramG MajorG |----------14--------|---------------------|---------------------|
A chord diagramD MajorD |--------------------|---------------------|---------------------|
A chord diagramA majorA |--------------------|---------------------|---------------------|
A chord diagramE MajorE |--------------------|---------------------|---------------------|

Violins
Left Earphone
A chord diagramE MajorE |-------------------------------------|-----------------------------------|
A chord diagramBB |----------------8----5---------------|---------------------8----5--------|
A chord diagramG MajorG |------4----5-------------------4-----|------4----5----7--------------7---|
A chord diagramD MajorD |-7------------------------5----------|-7---------------------------------|
A chord diagramA majorA |-------------------------------------|-----------------------------------|
A chord diagramE MajorE |-------------------------------------|-----------------------------------|
     (RHCP Riff comes in, repeat these two measures directly above)

Right Earphone
A chord diagramE MajorE |----------------10---8---------------|-------------------------------5/7-|
A chord diagramBB |---------------------------5----8----|-----------5----6----8-------------|
A chord diagramG MajorG |-5----7----9-------------------------|-5----7----------------------------|
A chord diagramD MajorD |-------------------------------------|-----------------------------------|
A chord diagramA majorA |-------------------------------------|-----------------------------------|
A chord diagramE MajorE |-------------------------------------|-----------------------------------|
(RHCP Riff comes in)
A chord diagramE MajorE |-------------------------------------|--------------------------8----7---|
A chord diagramBB |----------------8----5----------3----|-----------5----6----8-------------|
A chord diagramG MajorG |-5----7----9-------------------------|-5----7----------------------------|
A chord diagramD MajorD |-------------------------------------|-----------------------------------|
A chord diagramA majorA |-------------------------------------|-----------------------------------|
A chord diagramE MajorE |-------------------------------------|-----------------------------------|

Third Violin
A chord diagramE MajorE |-------------------------------------|------8---------10---12---15---15--|
A chord diagramBB |-------------------------------------|-----------------------------------|
A chord diagramG MajorG |-------nothing-yet-------------------|-----------------------------------|
A chord diagramD MajorD |-------------------------------------|-----------------------------------|
A chord diagramA majorA |-------------------------------------|-----------------------------------|
A chord diagramE MajorE |-------------------------------------|-----------------------------------|
(RHCP Riff comes in)
A chord diagramE MajorE |-20------20------20----222019--|-17--------17----15---13-12-12--------15-|
A chord diagramBB |-------------------------------|-----------------------------------------|
A chord diagramG MajorG |-------------------------------|-----------------------------------------|
A chord diagramD MajorD |-------------------------------|-----------------------------------------|
A chord diagramA majorA |-------------------------------|-----------------------------------------|
A chord diagramE MajorE |-------------------------------|-----------------------------------------|

Fourth Violin
A chord diagramE MajorE |-------------------------------------|-----------------------------------|
A chord diagramBB |-------------------------------------|-----------------------------------|
A chord diagramG MajorG |-------nothing-yet-------------------|-----------------------------------|
A chord diagramD MajorD |-------------------------------------|-----still-nothing-yet!------------|
A chord diagramA majorA |-------------------------------------|-----------------------------------|
A chord diagramE MajorE |-------------------------------------|-----------------------------------|
(RHCP Riff comes in)
A chord diagramE MajorE |-20------20------20----222019--|-12------------12-----------12--------10-|
A chord diagramBB |-------------------------------|-----------------------------------------|
A chord diagramG MajorG |-------------------------------|-----------------------------------------|
A chord diagramD MajorD |-------------------------------|-----------------------------------------|
A chord diagramA majorA |-------------------------------|-----------------------------------------|
A chord diagramE MajorE |-------------------------------|-----------------------------------------|


Ryan Lewis Riff Remixed (2:48)
E|-----------------|-----------------|-----------------|-----------------|
B|-----------------|---5-----5-----5-|---5---5---5\3---|---5---5---5\3---|
G|-4-4-5-7---4-5-7-|-----5-----5-5---|-----------------|-----------------|
D|-----------------|-------5---------|-5---5---5-------|-5---5---5-------|
A|-----------------|-----------------|-----------------|-----------------|
E|-----------------|-----------------|-----------------|-----------------|



Outro (4:35)
RHCP Riff in background

Left Earphone
E|-17-17-15-15-15----------12-12----------------|
B|----------------12-13-15-------15-15-15-13-12-|
G|----------------------------------------------|
D|----------------------------------------------|
A|----------------------------------------------|
E|----------------------------------------------|

E|-17-17-15-15----------------------------------|
B|-------------12-12-13-15----13----15----------|
G|-------------------------------------------12-|
D|-------------------------------------14-15----|
A|----------------------------------------------|
E|----------------------------------------------|

Right Earphone
E|-17-17-15-15-------------12-12----------------|
B|-------------12-12-13-15-------15-15-15-13-12-|
G|----------------------------------------------|
D|----------------------------------------------|
A|----------------------------------------------|
E|----------------------------------------------|

E|-17-17-15-15----------------------------------|
B|-------------12-12-13-15----13----15-15-13-12-|
G|----------------------------------------------|
D|----------------------------------------------|
A|----------------------------------------------|

Other versions of Otherside

OthersideTabs

↓ Add and view comments below ↓

What do you think about this song and these tabs?

Add your comments, questions, rant or a thumbs up below.

Almost there ...

Sign in to get your own page with links to favourite songs and more. You are just one click away...

Login with Facebook Login with Google