Log in

One click and you are in

Login with Facebook Login with Google

Why sign up and log in

Guitar Tabs Explorer
Macklemore guitar tabs for Glorious

Guitar tabs

Intro: (x8)
e|---------------------------------------------------------------------------|
B|---------------------------------------------------------------------------|
G|-----------------------------3-----3---------------------------------------|
D|-------------0---0-0-1----0--1-----1---------------------------------------|
A|-1-----------1---1---3---3-------------------------------------------------|
E|-3----1-3------------------------------------------------------------------|
Verse 1:
e|---------------------------------------------------------------------------|
B|---------------------------------------------------------------------------|
G|---------------------------------------------------------------------------|
D|----------------0-----1--------------------0-----1-------------------------|
A|-----0h1----1-----3-------------0h1----1-----3-----------------------------|
E|-3------------------------3------------------------------------------------|


Verse 2: (x2)
e|---------------------------------------------------------------------------|
B|---------------------------------------------------------------------------|
G|---------------------------------------------------------------------------|
D|---------------------------------0-0---------------------------------------|
A|------1-1---1-1---------1-----1-3------------------------------------------|
E|-1-3-----3-------3--1-3-3--3-----------------------------------------------|


Chorus:
e|-------------------------------------------------------------------------------------------|
B|-------------------------------------------------------------------------------------------|
G|-------------------------------------------------------------------------------------------|
D|----------0-0-0---------------------0---0--3-----------------------------------------------|
A|-----1-3--------3-1-3----------1-3--1---------1--------------1-1----1-1--------1-1----3--1-|
E|-1-3------------------------3----------------------3-1-1-3-------3------3--1-3-----3---1---|

e|-------------------------------------------------------------------------------------|
B|-------------------------------------------------------------------------------------|
G|-------------------------------3----3------------------------------------3--------3--|
D|--------------0---0---0--1---0-1----1-------------------0---0---0--1---0-1---1-------|
A|-1----1-------1---1---1--3--3--------------1----1-------1---1---1--3--3--------------|
E|------3---1-3-----------------------------------3---1-3------------------------------|

Verse 2: (x4)
e|---------------------------------------------------------------------------|
B|---------------------------------------------------------------------------|
G|---------------------------------------------------------------------------|
D|---------------------------------0-0---------------------------------------|
A|------1-1---1-1---------1-----1-3------------------------------------------|
E|-1-3-----3-------3--1-3-3--3-----------------------------------------------|


Verse 1:
e|---------------------------------------------------------------------------|
B|---------------------------------------------------------------------------|
G|---------------------------------------------------------------------------|
D|----------------0-----1--------------------0-----1-------------------------|
A|-----0h1----1-----3-------------0h1----1-----3-----------------------------|
E|-3------------------------3------------------------------------------------|


Chorus:
e|-------------------------------------------------------------------------------------------|
B|-------------------------------------------------------------------------------------------|
G|-------------------------------------------------------------------------------------------|
D|----------0-0-0---------------------0---0--3-----------------------------------------------|
A|-----1-3--------3-1-3----------1-3--1---------1--------------1-1----1-1--------1-1----3--1-|
E|-1-3------------------------3----------------------3-1-1-3-------3------3--1-3-----3---1---|

e|-------------------------------------------------------------------------------------|
B|-------------------------------------------------------------------------------------|
G|-------------------------------3----3------------------------------------3--------3--|
D|--------------0---0---0--1---0-1----1-------------------0---0---0--1---0-1---1-------|
A|-1----1-------1---1---1--3--3--------------1----1-------1---1---1--3--3--------------|
E|------3---1-3-----------------------------------3---1-3------------------------------|


Verse 3: (x2)
e|---------------------------------------------------------------------------|
B|---------------------------------------------------------------------------|
G|---------------------------------------------------------------------------|
D|--------0------0---------0------0--------0------0-0-1-0--------------------|
A|-----1-3----1-3-------1-3----1-3------1-3----1-3-------3-1-----------------|
E|-1-3-----1-3-------1-3----1-3------1-3----1-3--------------3---------------|


Chorus:
e|-------------------------------------------------------------------------------------------|
B|-------------------------------------------------------------------------------------------|
G|-------------------------------------------------------------------------------------------|
D|----------0-0-0---------------------0---0--3-----------------------------------------------|
A|-----1-3--------3-1-3----------1-3--1---------1--------------1-1----1-1--------1-1----3--1-|
E|-1-3------------------------3----------------------3-1-1-3-------3------3--1-3-----3---1---|

e|-------------------------------------------------------------------------------------|
B|-------------------------------------------------------------------------------------|
G|-------------------------------3----3------------------------------------3--------3--|
D|--------------0---0---0--1---0-1----1-------------------0---0---0--1---0-1---1-------|
A|-1----1-------1---1---1--3--3--------------1----1-------1---1---1--3--3--------------|
E|------3---1-3-----------------------------------3---1-3------------------------------|


Outro:
e|---------------------------------------------------------------------------|
B|---------------------------------------------------------------------------|
G|---------------------------------------------------------------------------|
D|---------------0-----------------------------------------------------------|
A|-1----1-----1-3--1---------------------------------------------------------|
E|---3-1---3-1---------------------------------------------------------------|


************************************

| h  Hammer-on

Other versions of Glorious

GloriousChords

Almost there ...

Sign in to get your own page with links to favourite songs and more. You are just one click away...

Login with Facebook Login with Google